» » »

I Don't Give Bass tabs (ver.1)

Artists:  A B C D E F G H I J K L M N O P Q R S T U V W X Y Z # 

I Don't Give Bass tabs (ver.1)

Avril Lavigne
Rating:
0/5 (0 votes)

Hard to play? Try these video lessons and learn fast.
                Verse:
G|------------------------------|---------------|
D|------------------------------|---------------|
A|-3-5-3------------------------|-3-5-3-------3-|
E|------6-4-4-4-6-6-6-8-8-8-6-6-|------6-6-4-4--|

Chorus:
G|------------------------------------------|
D|------------------------------------------|
A|-6-6-6-6-6-6-6-6-6-6----------------------|
E|--------------------4-4-4-4-4-6-6-6-6-6-6-|

G|--------------------------------|
D|--------------------------------|
A|-3-3-3-3-3-3-3-3-3-3------------|
E|--------------------4-4-4-4-4-6-|

Bridge:
G|--------------------------|
D|--------------------------|
A|----3---3-6-6-6-6-8-8-8-8-|
E|-4-6-4-6------------------|
            
Hard to play? Try these video lessons and learn fast. | Correct




comments powered by Disqus
↑ Back to top | Tablatures and chords are parodies/interpretations of the original songs. You may use it for private study, scholarship, research or language learning purposes only