» » »

I Don Give Bass tabs (ver.1)

Artists:  A B C D E F G H I J K L M N O P Q R S T U V W X Y Z # 

I Don Give Bass tabs (ver.1)

Avril Lavigne
Rating:
0/5 (0 votes)

Hard to play? Try these video lessons and learn fast.
                Artist : Avril Lavigne

Verse
G|-------------------------------------------------|
D|---0---------------------------------------------|
A|-3---3-1-------1-1-1--3-3-3-1-1--3-5-3-1-1-----3-|
E|---------4-4-4-----------------------------4-4---|

Chorus
G|------------------------------------------|
D|------------------------------------------|
A|-6-6-6-6-6-6-6-6-6-6----------------------|
E|--------------------4-4-4-4-4-6-6-6-6-6-6-|

G|--------------------------------|
D|--------------------------------|
A|-3-3-3-3-3-3-3-3-3-3------------|
E|--------------------4-4-4-4-4-6-|

Bridge
G|----------------------------|
D|------------1-1-1-1-3-3-3-3-|
A|---1-3--1-3-----------------|
E|-4----4---------------------|
            
Hard to play? Try these video lessons and learn fast. | Correct




comments powered by Disqus
↑ Back to top | Tablatures and chords are parodies/interpretations of the original songs. You may use it for private study, scholarship, research or language learning purposes only