» » »

Darlin Bass tabs (ver.1)

Artists:  A B C D E F G H I J K L M N O P Q R S T U V W X Y Z # 

Darlin Bass tabs (ver.1)

Avril Lavigne
Rating:
0/5 (0 votes)

Hard to play? Try these video lessons and learn fast.
                Avril Lavigne
Darlin
Goodbye Lullaby
2011 RCA Records

The bass is only played at the Verse 3: and Last chorus part.

Key: C

Verse 3: Ohhh
   C   G   Am  F
G|-5-|---|---|---|
D|---|-5-|-7-|-3-|
A|---|---|---|---| x2
E|---|---|---|---|

It's not yor fault
   C   G   Am  F
G|-5-|---|---|---|
D|---|-5-|-7-|-3-| x2
A|---|---|---|---|
E|---|---|---|---|

Chorus 1:

Pretty please I know it's a drag
    Am         F         C         G
G|-------|-----------|-------|-----------|
D|-------|-----------|-------|-----------|
A|-0-0-0-|-----------|-3-3-3-|-----------|
E|-------|-1-1-1-1-1-|-------|-3-3-3-3-3-|

Wipe your eyes and put up your head
    Am         F         C         G
G|-------|-----------|-------|-----------|
D|-------|-----------|-------|-----------|
A|-0-0-0-|-----------|-3-3-3-|-----------|
E|-------|-1-1-1-1-1-|-------|-3-3-3-3-3-|

I wish you could be happy instead
    Am         F         C         G
G|-------|-----------|-------|-----------|
D|-------|-----------|-------|-----------|
A|-0-0-0-|-----------|-3-3-3-|-----------|
E|-------|-1-1-1-1-1-|-------|-3-3-3-3-3-|

There’s nothing else I can do
but love you the best that I can
    Am         F         C         G
G|-------|-----------|-------|-----------|
D|-------|-----------|-------|-----------|
A|-0-0-0-|-----------|-3-3-3-|-----------|
E|-------|-1-1-1-1-1-|-------|-3-3-3-3-3-|


Chorus 2:

Pretty please I know it's a drag
    Am         F         C         G
G|-------|-----------|-------|-----------|
D|-------|-----------|-------|-----------|
A|-0-0-0-|-----------|-3-3-3-|-----------|
E|-------|-1-1-1-1-1-|-------|-3-3-3-3-3-|

Wipe your eyes and put up your head
    Am         F         C         G
G|-------|-----------|-------|-----------|
D|-------|-----------|-------|-----------|
A|-0-0-0-|-----------|-3-3-3-|-----------|
E|-------|-1-1-1-1-1-|-------|-3-3-3-3-3-|

I wish you could be happy instead
    Am         F         C         G
G|-------|-----------|-------|-----------|
D|-------|-----------|-------|-----------|
A|-0-0-0-|-----------|-3-3-3-|-----------|
E|-------|-1-1-1-1-1-|-------|-3-3-3-3-3-|

There’s nothing else I can do
but love you the best that I can
    Am         F         C         G
G|-------|-----------|-------|-----------|
D|-------|-----------|-------|-----------|
A|-0-0-0-|-----------|-3-3-3-|-----------|
E|-------|-1-1-1-1-1-|-------|-3-3-3-3-3-|

yeah yeah yeah that I can
    Am         F         C         G
G|-------|-----------|-------|-----------|
D|-------|-----------|-------|-----------|
A|-0-0-0-|-----------|-3-3-3-|-----------|
E|-------|-1-1-1-1-1-|-------|-3-3-3-3-3-|

ohhh
    Am         F         C         G
G|-------|-----------|-------|-----------|
D|-------|-----------|-------|-----------|
A|-0-0-0-|-----------|-3-3-3-|-----------|
E|-------|-1-1-1-1-1-|-------|-3-3-3-3-3-|
            
Hard to play? Try these video lessons and learn fast. | Correct




comments powered by Disqus
↑ Back to top | Tablatures and chords are parodies/interpretations of the original songs. You may use it for private study, scholarship, research or language learning purposes only