» » »

Avril Lavigne, Best Damn Thing Tabs (ver.1)

Artists:  A B C D E F G H I J K L M N O P Q R S T U V W X Y Z # 

Best Damn Thing Tabs (ver.1)

Avril Lavigne Tabs
 Rating:
3.5/5 (8 votes)
Best Damn Thing lessons Tabs too difficult? Try these video lessons and learn fast
                Avril lavigne - The best damn thing


[corrected June 6th 2008]

This is for 1 guitar 

Verse (only bass)
Pre-chorus (only bass and piano)

Chorus
That you're not not not...
e|----------------------------------|
B|----------------------------------|
G|--777777777777--------------------|
D|--777777777777---77777777777777---|
A|--555555555555---77777777777777---|
E|-----------------55555555555555---|

Like it or not...
e|-----------------------------------|
B|-----------------------------------|
G|-----------------------------------|
D|--99999999999999--555555555555555--|
A|--99999999999999--555555555555555--|
E|--77777777777777--333333333333333--|

And yeah yeah yeah...
e|-----------------------------------------------|
B|-----------------------------------------------|
G|--777777777777---------------------------------|
D|--777777777777---77777777777777--999999999999--|
A|--555555555555---77777777777777--999999999999--|
E|-----------------55555555555555--777777777777--|

I'm the best damn thing that your eyes have ever seen!
e|---------------------|
B|---------------------|
G|---------------------|
D|-----5--5--5--5-7----|
A|-----5--5--5--5-7----|
E|-----3--3--3--3-5----|

alright alright
e|--------------|
B|--------------|
G|--7-----------|
D|--7----3-4-5--|
A|--5----5-6-7--|
E|--------------|

Verse
Pre-chorus
e|---------------------------------------|
B|---------------------------------------|
G|--------------------7777777------------|
D|--9999999--5555555--7777777--7777777---|  x2
A|--9999999--5555555--5555555--7777777---|
E|--7777777--3333333-----------5555555---|


Chorus

Bridge
Give me an A!
e|--------------|
B|--------------|
G|--------------|
D|--5-6-7\------|
A|--3-4-5\------|
E|--------------| 
repeat 5 times - listen to the song for the exact timing

Pre-chorus
e|---------------------------------------------|
B|---------------------------------------------|
G|---------------------------------------------|
D|-16-14-12-9--12/14-16-14-12-9--14-12-11-9-7--|
A|-x--x--x--x--x--x--x--x--x--x--x--x--x--x-x--|
E|-14-12-10-7--10/12-14-12-10-7--12-10-9--7-5--|

Chorus
That you're not not not...
e|----------------------------------|
B|----------------------------------|
G|--777777777777--------------------|
D|--777777777777---77777777777777---|
A|--555555555555---77777777777777---|
E|-----------------55555555555555---|

Like it or not...
e|-----------------------------------|
B|-----------------------------------|
G|-----------------------------------|
D|--99999999999999--555555555555555--|
A|--99999999999999--555555555555555--|
E|--77777777777777--333333333333333--|

And yeah yeah yeah...
e|-----------------------------------------------|
B|-----------------------------------------------|
G|--777777777777---------------------------------|
D|--777777777777---77777777777777--999999999999--|
A|--555555555555---77777777777777--999999999999--|
E|-----------------55555555555555--777777777777--|

I'm the best damn thing that your eyes have ever seen!
e|--------------|
B|--------------|
G|--------------|
D|--555555-7----|
A|--555555-7----|
E|--333333-5----|

Outro
Let me hear you say...
e|--------------|
B|--------------|
G|--------------|
D|--5-6-7\------| x2(I'm not sure)
A|--3-4-5\------|
E|--------------| 

Hey, hey, hey!...
e|-------------------------------------------|
B|-------------------------------------------|
G|--777777777777777777777777777777777777777--|
D|--777777777777777777777777777777777777777--|
A|--555555555555555555555555555555555555555--|
E|-------------------------------------------|

I'm the best damn thing that your eyes have ever seen!
e|---------------------------|
B|---------------------------|
G|----------------------5----|
D|--55555555--77777777--5----|
A|--55555555--77777777--3----|
E|--33333333--55555555-------|

have fun! :)
            
Submit corrections

comments powered by Disqus
↑ Back to top | Avril Lavigne Tabs for Best Damn Thing. Lyrics for acoustic guitar and electric guitar. Tablatures and chords are parodies/interpretations of the original songs. You may use it for private study, scholarship, research or language learning purposes only