» » »

I Wont See You Tonight 1 Tabs

Artists:  A B C D E F G H I J K L M N O P Q R S T U V W X Y Z # 

I Wont See You Tonight 1 Tabs

(ver. 1)
Avenged Sevenfold Tabs
 Rating:
4/5 (4 votes)
    I Wont See You Tonight lessons Tabs too difficult? Try these video lessons and learn fast
                Tuning: eBGDAD on both guitars

Intro Gtr1

e--------------------------------------------------------------------------
B--------------------------------------------------------------------------
G--------------------------3-----------------------------------------------
D-5----1----3----0----1----3x8-3---5----1----3----0---1---3---5------------
A-5x16-1x16-3x16-0x16-1x16-1---3x8-5x16-1x16-3x16-0x8-1x4-3x4-5------------
D-5----1----3----0----1--------3---5----1----3----0---1---3---5------------

Gtr2

e------------------------------------------------------------------------------------
B------------------------------------------------------------------------------------
G-12---14/15\14/15\14-----10--14/15\14/15\14------10-11------------------------------
D----------------------12----------------------12--------12/11\12---12/10\12-8-10/12-
Ä------------------------------------------------------------------------------------
D------------------------------------------------------------------------------------

e-------------------------------------------------------------------------------
B-------10/11\10-8-6-8----8-10-11-13-11-10--------------------------------------
G-10-12---------------------------------------14/15\14/15\14------10-11-12-14-12
D--------------------------------------------------------------12---------------
Ä-------------------------------------------------------------------------------
D-------------------------------------------------------------------------------

Pre-verse(not sure about this part)
Gtr 2
e-----15-17-15-13-10-10-13-18-17-15---------15-17-18-17-15----------
B---15-----------------------------15-----15------------------------
G-15---------------------------------15-15--------------------------
D-------------------------------------------------------------------
Ä-------------------------------------------------------------------
D-------------------------------------------------------------------

Versex2 Gtr 1 (this is wrong but it sounds good)

e-------------------------------------------------------------------
B-10-11-10-8-8-10-10/11-11-10-8-810-10/11-11-10-8-8-10-8-7-4-3------
G-------------------------------------------------------------------
D-------------------------------------------------------------------
Ä-------------------------------------------------------------------
D-------------------------------------------------------------------

chorus noth gtrs

e-------------------------------------------------------------------
B-------------------------------------------------------------------
G---------3---------------------------------------------------------
D-5---1---3x8-3-------4---------------------------------------------
Ä-5x8-1x8-1---3-------4---------------------------------------------
D-5---1-------3-------4---------------------------------------------

Verse

Chorusx2

solo gtr2

e-15-15-13-15--15-17-18-13-15--17/18\17/18\17-------------------------17-----17-18---
B----------------------------------------------15-18-19-15\13/15---15----15----------
G------------------------------------------------------------------------------------
D------------------------------------------------------------------------------------
Ä------------------------------------------------------------------------------------
D------------------------------------------------------------------------------------

e-15-15-17-18-22--22-20-18-20--20-18-17-15----17----17-18-15-----17----17-18-15-----
B------------------------------------------15----15-----------15----15--------------
G-----------------------------------------------------------------------------------
D-----------------------------------------------------------------------------------
Ä-----------------------------------------------------------------------------------
D-----------------------------------------------------------------------------------

e----17----17-18-15\14-------17----17--------------12-13-13-13
B-15----15-------------15-15----15----13-11--10-11------------
G-------------------------------------------------------------
D-------------------------------------------------------------
A-------------------------------------------------------------
D-------------------------------------------------------------

Chorus (play first intro part)

Bridge Gtr2 (gtr1 plays intro)

e------------------------------------------------------------------------------------
B------------------------------------------------------------------------------------
G-12-12-14-15--17-15-14-15\14/15\14----------12-14-17-15-14-14-15--17-14/15\14-------
D-----------------------------------15-----------------------------------------------
A--------------------------------------15--------------------------------------------
D------------------------------------------------------------------------------------

e-------------6/15\13--18/17\18/-15-13-15-15-17-18-22--18/17\18/17-------------------
B----------15------------------------------------------------------18----------------
G-12-14-15------------------------------------------------------------17--15/14\15/14
D------------------------------------------------------------------------------------
A------------------------------------------------------------------------------------
D------------------------------------------------------------------------------------

e-----------------------------------------------------------------------------
B-----------------------16-15-------------------------------------------------
G--------------15-14-12-------------------------------------------------------
D-15--------------------------------------------------------------------------
A----15-13-12-----------------------------------------------------------------
D-----------------------------------------------------------------------------

Solo Gtr2

e---------------------------------------------------------------------------
B---------------------------------------------------------------------------
G---------------------------------------------------------------------------
D-7-8-7-8-5--5-7-8-10-8-7-5--7-8-7-8-3--8-7-8-10-8-7-5--7-8-7-8-5--7-8-7-8-5
A---------------------------------------------------------------------------
D---------------------------------------------------------------------------

e-----------------------------------------------------------------12/13
B----------------------------------------------------------------------
G----------------------------------------------------------------------
D-5-7-8-10-8-7-5--7-8-7-8-3-5-7-8-10-8-7-55-4-5-7-5-play 2 times-------
A----------------------------------------------------------------------
D----------------------------------------------------------------------

Piano interlude

Outro Both gtrs
e----------------------------------------------------------------------
B----------------------------------------------------------------------
G----------------------------------------------------------------------
D-5----3----1----0-----------------------------------------------------
A-5x16-3x16-1x16-0x16--------------------------------------------------
D-5----3----1----0-----------------------------------------------------

You have to fix the rytm self
            
Submit corrections

↑ Back to top | Avenged Sevenfold Tabs for I Wont See You Tonight. Lyrics for acoustic guitar and electric guitar. Tablatures and chords are parodies/interpretations of the original songs. You may use it for private study, scholarship, research or language learning purposes only