» » »

I Wont See You Tonight Tabs (ver.5)

Artists:  A B C D E F G H I J K L M N O P Q R S T U V W X Y Z # 

I Wont See You Tonight Tabs (ver.5)

Avenged Sevenfold
Rating:
0/5 (0 votes)

Hard to play? Try these video lessons and learn fast.
                PM - Palm mute
/ - Slide up
\ - Slide down
^ - Bend
~ - Vibrato

Tuning: D A D G B E


Intro/Verse
|---------------------|
|---------------------|
|---------------------|
|---------------------|
|-00000---00000-00000-|
|-00000---00000-00000-|
PM-----   ----- -----


|-----------------------|-----------------------|
|-----------------------|-----------------------|
|-----------------------|-----------------------|
|-----------------------|-----------------------|
|-1--1-1/8-7--0--0-/3-5-|-1--1-1/8-7--0--0-/4-6-|
|-1--1-1/8-7--0--0-/3-5-|-1--1-1/8-7--0--0-/3-5-|


|--------------------------|-----------------------------------|
|-------15----------15-15--|----------15-----------------15-15-|
|-------14----------14-14--|----------14-----------------14-14-|
|--------------------------|-----------0------------------0--0-|
|-0-0-0-----0-0-0-0--------|-00-0-000-----0000-0-000-0-0-------|
|-0-0-0-----0-0-0-0--------|-00-0-000-----0000-0-000-0-0-------|
PM- - -     - - - -          -- - ---     ---- - --- - -


|---------------------|---------------|
|---------------------|---------------|
|---------------------|---------------|
|---------------------|---------------|
|---------------------|---------------|
|-5/12-11-10-9-7-5----|-5/12-11-10-5^-|


Fill
|-----------|
|-----------|
|-----------|
|-----------|
|-0-0-/6\-0-|
|-0-0-/6\-0-|


Chorus
|----------------------------------------------|----------------|
|----------------------------------------------|----------------|
|----------------------------------------------|----------------|
|--------8-7---------7-6---------6-5-------5-4-|----------------|
|-0-0---10-9-0-0-0---9-8-0-0-0---8-7-0-0-0-7-6-|-0-0-1/5---6\-0-|
|-0-0-0------0-0-0-0-----0-0-0-0-----0-0-0-----|-0-0-1/5---6\-0-|
PM- -        - - -       - - -       - - -      


Verse
|-----------------------------------------------------------|
|-----------------------------------------------------------|
|-----------------------------------------------------------|
|------7-7--7777-8---------------------7-7--7777-8----------|
|-0000-5-5--5555-6--5-5/6--6\2/3--0000-5-5--5555-6--2-3-5-6-|
|-0000--------------5-5/6--6\2/3--0000--------------2-3-5-6-|
PM----      ----                  ----      ----


Cool riff
|---------------------------------|
|---------------------------------|
|---------------------------------|
|---------------------------------|
|-0-12-11-0-10-9-8-7-0-7-6-0-5----|
|-0-12-11-0-10-9-8-7-0-7-6-0-5-3~-|


|----------------------|
|----------------------|
|----------------------|
|----------------------|
|-00-00--00--0-0-00000-|
|-00-00--00--0-0-00000-|
PM-- --  --  - - -----


Solo part (this is the rhythm; not sure about this part)
|--------------------------------------------|
|--------------------------------------------|
|--------------------------------------------|
|--------------------------------------------|
|-0--000-------000-----0-0-00-0-00-2-00-3-00-|
|-0--000-7~-6~-000-5~--0-0-00-0-00-2-00-3-00-|
     ---       ---     - - --   --   --   --

|-------------------------------------------------------------|
|-------------------------------------------------------------|
|-------------------------3-3-3-3-3-3-------------------------|
|-------------------------3-3-3-3-3-3-------------------------|
|-5-5-5-5-5-5-1-1-1-1-1-1-1-1-1-1-1-1-3-3-3-3-3-3-4-4-4-4-4-4-|
|-5-5-5-5-5-5-1-1-1-1-1-1-------------3-3-3-3-3-3-4-4-4-4-4-4-|
            
Hard to play? Try these video lessons and learn fast. | Correct




comments powered by Disqus
↑ Back to top | Tablatures and chords are parodies/interpretations of the original songs. You may use it for private study, scholarship, research or language learning purposes only