>
 >
I Cant Escape

I Cant Escape Guitar Tabs

A Vain Attempt - I Cant Escape chords, tabs, tablatures, lyrics

Guitar lessons | Add/correct | Request | Top 50 tabs Artists:  A B C D E F G H I J K L M N O P Q R S T U V W X Y Z 0-9

I Cant Escape Guitar Tabs – A Vain Attempt

CD, Sheet music, Poster

Do you like I Cant Escape? Share with your friends now
Tabs
SuKKEr have the guitar tabs to A vain attempt - I cant escape and here it is. I
did it by myself. Maybe it's somthing wierd but lets trie! Enjoy : )

Intro:

 --------------------------------------------|
 --------------------------------------------|
 ------5-5------5-5-4-4-----5-5------5-5-4-4-|
 --7-7------7-7---------7-7------7-7---------|
 --7-7------7-7---------7-7------7-7---------|
 --------------------------------------------|
                                                    X2
 --------------------------------------------|
 --------------------------------------------|
 ------5-5------5-5-4-4-----5-5------5-5-4-7-|
 --3-3------3-3---------5-5------5-5---------|
 --3-3------3-3---------5-5------5-5---------|
 --------------------------------------------|

           Then the guitar 2 continues playing the intro


Guitar 1 -------------2-2--------------------------------------------------|
Begins   -5-5-5-5---------5-5-5-5----------3-3-3-3-------------------------|
to play: ---------4-4-------------4-4--2-2-------------5-5-4-4-4-4-2-2-2-2-|
         ------------------------------------------5-5---------------------|
         ------------------------------------------------------------------|
         ------------------------------------------------------------------|

         -------------2-2------------------------------------------------|
         -5-5-5-5---------5-5-5-5---------1-1-1-1-1-1-1-1-3-3-3-3-----5--|
         ---------4-4-------------4-4-2-2-------------------------4-4----|
         ----------------------------------------------------------------|
         ----------------------------------------------------------------|
         ----------------------------------------------------------------|

         You screaming back!

         ---------------------------------|
         ---------------------------------|
         -7-0-6-0-7-0-6-0-9-0-7-0-6-0-7-0-|   (many times)
         ---------------------------------|
         ---------------------------------|
         ---------------------------------|

         Those razors hurt, I cant feel fine my love here tonight...

         -----------------------------------------|
         -----10-7-----10-7-------10-7---10-7-----|
         ---7--------7------9---7-------------9-7-|
         -9--------9----------9--------9----------|    X2
         -----------------------------------------|
         -----------------------------------------|

               I seem to be away....

         -------------------------------------------------------------|
         -7-7-7-7-7-7-7---10-10-10-10-8-8-7-7 10-10-10-10-10-10-10-10-|
         ---------------8---------------------------------------------|
         -------------------------------------------------------------|
         -------------------------------------------------------------|
         -------------------------------------------------------------|

         ------------------------|
         -12-12-12-12-10-10------|
         -------------------11-9-|              X4
         ------------------------|
         ------------------------|
         ------------------------|

               You screaming back!

         ---------------------------------|
         ---------------------------------|
         -7-0-6-0-7-0-6-0-9-0-7-0-6-0-7-0-|   (many times)
         ---------------------------------|
         ---------------------------------|
         ---------------------------------|

         Those razors hurt, I cant feel fine my love here tonight...

         -----------------------------------------|
         -----10-7-----10-7-------10-7---10-7-----|
         ---7--------7------9---7-------------9-7-|
         -9--------9----------9--------9----------|    X2
         -----------------------------------------|
         -----------------------------------------|

               I seem to be away....

         -------------------------------------------------------------|
         -7-7-7-7-7-7-7---10-10-10-10-8-8-7-7 10-10-10-10-10-10-10-10-|
         ---------------8---------------------------------------------|
         -------------------------------------------------------------|
         -------------------------------------------------------------|
         -------------------------------------------------------------|

         ------------------------|
         -12-12-12-12-10-10------|
         -------------------11-9-|              X4
         ------------------------|
         ------------------------|
         ------------------------|

         This will be the last time I talk to you...
         ---------------------------------------6-4-|
         -------------9-6-4-6-4-------------9-6-----|
         -----------6---------------------6---------|
         -8-8-8-8-8-------------8-8-8-8-8-----------|
         -8-8-8-8-8-------------8-8-8-8-8-----------|
         -6-6-6-6-6-------------6-6-6-6-6-----------|

         -------------------------------------------|
         -------------9-6-4-6-4-------------9-6-4---|
         -----------6---------------------6-------6-|
         -4-4-4-4-4-------------6-6-6-6-6-----------|
         -4-4-4-4-4-------------6-6-6-6-6-----------|
         -2-2-2-2-2-------------4-4-4-4-4-----------|

         What you did to me right know I can just say I hate you...

         ---------------------------------------------------------|
         -7-7-7-7-7-7-7-7-7-7-7-7-7-7-7---10-10-10-10-10-10-10-10-|
         -------------------------------9-------------------------|
         ---------------------------------------------------------|
         ---------------------------------------------------------|
         ---------------------------------------------------------|

         -------------10-10-10-10-|
         -12-12-12-12-------------|
         -------------------------|        X2
         -------------------------|
         -------------------------|
         -------------------------|

               I seem to be away....

         -------------------------------------------------------------|
         -7-7-7-7-7-7-7---10-10-10-10-8-8-7-7 10-10-10-10-10-10-10-10-|
         ---------------8---------------------------------------------|
         -------------------------------------------------------------|
         -------------------------------------------------------------|
         -------------------------------------------------------------|

         ------------------------|
         -12-12-12-12-10-10------|
         -------------------11-9-|              X4
         ------------------------|
         ------------------------|

         I Cant Escape from you...

         --------------------------------------------------------|
         --------------------------------------------------------|
         --------------------------------------------------------|
         -4-4-4-4--6-6-6-6--8-8-8-8--------6-5-6-----8-6-8-------|
         -4-4-4-4--6-6-6-6--8-8-8-8----4-4-------6-6-------8-8---|
         -2-2-2-2--4-4-4-4--6-6-6-6----4-4-------6-6-------------|

         --------------------------|
         --------------------------|
         --------------------------|
         -----10-8-10-11-10-8-10---|
         -8-8----------------------|
         -8-8----------------------|

         You did to me...

         --------6-4------------------|
         ---9-6--------9-6--4-6-4-7-6-|
         -6----------6----------------|
         -----------------------------|
         -----------------------------|
         -----------------------------|

                                THE END!
                               ..........


   Why KKExD? ''SuKKErxD'' Think about it O.o

            THX FOR PLAYING TABS FROM SUKKER! I HOPE YOU LIKE IT! : )





Comments


Popular A Vain Attempt tabs & chords
I Saw Her Face Chords
I Saw Her Face 1 Chords
I Cant Escape Intro Tabs
I Saw Her Face Tabs
I Saw Her Face 1 Tabs
Red Bloody Roses Tabs
Trust Is A Rarity Intro Tabs
You Broke My Heart Tabs
I Saw Her Face Ukulele


Song lyrics



↑ Back to top | Tablatures and chords are parodies/interpretations of the original songs. You may use it for private study, scholarship, research or language learning purposes only
© 2014 AZChords.com Contact us | Privacy policy | DMCA | Add/correct tabs | Request tabs | Top 50 tabs