» » »

Subzero Fun Tabs (ver.1)

Artists:  A B C D E F G H I J K L M N O P Q R S T U V W X Y Z # 

Subzero Fun Tabs (ver.1)

Autolux
Rating:
5/5 (2 votes)

Hard to play? Try these video lessons and learn fast.
                -------------------------------------------------------------------------------
-------------------------------------------------------------------------------

Tuning: Half step down


This awesome little track starts off pretty easy.  The intro and first
verse are just strumming a powerchord.  Sounds best if you use all
downstrokes here.

eb|-----------------|-----------------|
Bb|-----------------|-----------------|
Gb|-9-9-9-9-9-9-9-9-|-9-9-9-9-9-9-9-9-|
Db|-9-9-9-9-9-9-9-9-|-9-9-9-9-9-9-9-9-|
Ab|-7-7-7-7-7-7-7-7-|-7-7-7-7-7-7-7-7-|
Eb|-----------------|-----------------|


Repeat this until the drums come in at about 0:38.  Then you're gonna toss
in the low Eb note and then add a lower fifth every fourth bar.  Make sure
to note that just before and just after we add that low fifth note we're
letting go of the 7th fret on the Ab string to let that note play, as well.
Looks like this:

eb|-----------------|-----------------|
Bb|-----------------|-----------------|
Gb|-9-9-9-9-9-9-9-9-|-9-9-9-9-9-9-9-9-|
Db|-9-9-9-9-9-9-9-9-|-9-9-9-9-9-9-9-9-|
Ab|-7-7-7-7-7-7-7-7-|-7-7-7-7-7-7-7-7-|
Eb|-0-0-0-0-0-0-0-0-|-0-0-0-0-0-0-0-0-|

eb|-----------------|-----------------|
Bb|-----------------|-----------------|
Gb|-9-9-9-9-9-9-9-9-|-9-9-9-9-9-9-9-9-|
Db|-9-9-9-9-9-9-9-9-|-9-9-9-9-9-9-9-9-|
Ab|-7-7-7-7-7-7-7-0-|-7-7-7-7-7-7-7-0-|
Eb|-0-0-0-0-0-0-0-0-|-7-7-7-7-7-7-7-0-|


Then, after your fourth time of that you're gonna drop the bottom Eb note
and the fifth as well as dropping the octave a half-step.  Just two bars of
this and keep your downstrokes.

eb|-----------------|
Bb|-----------------|
Gb|-8-8-8-8-8-8-8-8-|
Db|-x-x-x-x-x-x-x-x-|
Ab|-7-7-7-7-7-7-7-7-|
Eb|-----------------|


All right?  All right.  Here comes the chorus.  Kick on the distortion/fuzz
and increase stroke strength a bit.

eb|----------------------------|-----------------------------|
Bb|--16-16-16-16-15-15-15\-----|-----------------------------|
Gb|--x--x--x--x--x--x--x---13--|--(13)-13-13-13-13-13-13-13/-|
Db|--14-14-14-14-14-14-14\-x---|-------x--x--x--x--x--x--x---|
Ab|--x--x--x--x--x--x--x---11--|--(11)-11-11-11-11-11-11-11/-|
Eb|--0--0--0--0--0--0--0---0---|--(0)--0--0--0--0--0--0--0---|


Play the above three times and then end it with this, gradually bending
the notes in the last bar up a half note and releasing on the last strum
of the bar ('b' for bend, 'r' for return)

eb|---------------------------|-----------------------------|
Bb|---------------------------|-----------------------------|
Gb|--12-12-12-12-12-14-14-13--|--(13)-13-13-13-13-13-13-13--|
Db|--x--x--x--x--x--x--x--x---|-------x--x--x--x--x--x--x---|
Ab|--10-10-10-10-10-12-12-11--|--(11)-11-11-11-11-11-11-11--|
Eb|--0--0--0--0--0--0--0--0---|--(0)--0--0--0--0--0--0--0---|

eb|--------------------------|---------------------|------------------------|
Bb|--------------------------|---------------------|------------------------|
Gb|--12-12-12-12-12-14-------|--------9-------9----|--9-9-9-9b-9b-9b-9b-9r--|
Db|--x--x--x--x--x--x--x--9--|--(9)-9-9-9-9-9-9-9--|--9-9-9-9b-9b-9b-9b-9r--|
Ab|--10-10-10-10-10-12-x--7--|--(7)-7-7-7-7-7-7-7--|--7-7-7-7b-7b-7b-7b-7r--|
Eb|--0--0--0--0--0--0--0--7--|--(7)-7-7-7-7-7-7-7--|------------------------|


Back to the verse now; we're gonna be using that same Eb chord as the first
verse, but in the first bar we're bending it like we just did at the end of
the chorus.

eb|------------------------|----------------------|
Bb|------------------------|------6--------6------|
Gb|--9-9-9-9b-9b-9b-9b-9r--|--x-x-7----x-x-7------|
Db|--9-9-9-9b-9b-9b-9b-9r--|--x-x------x-x--------|
Ab|--7-7-7-7b-7b-7b-7b-7r--|--x-x------x-x--------|
Eb|------------------------|----------------------|


I gotta be honest with you, I'm not 100% on the second bar there, there's a
lot of noise and effects going on with the bass and the guitar tone gets 
quieter and more muffled there.  If you feel Greg is playing something else
on that second bar then by all means substitute what you feel is more
accurate.  Either way, we're now back to this prechorus piece.  Play it four
times.

eb|-----------------|
Bb|-----------------|
Gb|-8-8-8-8-8-8-8-8-|
Db|-x-x-x-x-x-x-x-x-|
Ab|-7-7-7-7-7-7-7-7-|
Eb|-----------------|


And then hit the chorus.
				*
eb|----------------------------|-----------------------------|
Bb|--16-16-16-16-15-15-15\-----|-----------------------------|
Gb|--x--x--x--x--x--x--x---13--|--(13)-13-13-13-13-13-13-13/-|
Db|--14-14-14-14-14-14-14\-x---|-------x--x--x--x--x--x--x---|  3 times, then
Ab|--x--x--x--x--x--x--x---11--|--(11)-11-11-11-11-11-11-11/-|
Eb|--0--0--0--0--0--0--0---0---|--(0)--0--0--0--0--0--0--0---|
			       *
eb|---------------------------|-----------------------------|
Bb|---------------------------|-----------------------------|
Gb|--12-12-12-12-12-14-14-13--|--(13)-13-13-13-13-13-13-13/-|
Db|--x--x--x--x--x--x--x--x---|-------x--x--x--x--x--x--x---|
Ab|--10-10-10-10-10-12-12-11--|--(11)-11-11-11-11-11-11-11/-|
Eb|--0--0--0--0--0--0--0--0---|--(0)--0--0--0--0--0--0--0---|

eb|--------------------------|
Bb|--------------------------|
Gb|-12-12-12-12-12-14-14-14/-|
Db|-x--x--x--x--x---x-x--x---|
Ab|-10-10-10-10-10-12-12-12/-|
Eb|-0--0--0--0--0--0--0--0---|


You're actually gonna play that whole bit through three times.  Feel free, on
the last go, to up the distortion a little bit and throw some gradual bends in
(like we did on the second verse) on those bars that I've so kindly marked with
an asterisk.  Now also on the last go don't worry about that last bar by itself
there.  Instead, you're gonna end the song with this here:

eb|--------------------------|---------------------|------------------------|
Bb|--------------------------|---------------------|------------------------|
Gb|--12-12-12-12-12-14-------|--------9-------9----|--9-9-9-9b-9b-9b-9b-9b--|
Db|--x--x--x--x--x--x--x--9--|--(9)-9-9-9-9-9-9-9--|--9-9-9-9b-9b-9b-9b-9b--|
Ab|--10-10-10-10-10-12-x--7--|--(7)-7-7-7-7-7-7-7--|--7-7-7-7b-7b-7b-7b-7b--|
Eb|--0--0--0--0--0--0--0--7--|--(7)-7-7-7-7-7-7-7--|------------------------|


Then just slowly release your bend on that chord and let the song end on
distorted feedback.  Awesome.  As always, give a couple listens to the song to
get a feeling for the rhythms and timings and tone and such.  This one isn't
too hard but it's great to play when you've got the whole band going.
            
Hard to play? Try these video lessons and learn fast. | Correct




comments powered by Disqus
↑ Back to top | Tablatures and chords are parodies/interpretations of the original songs. You may use it for private study, scholarship, research or language learning purposes only