» » »

Autolux, Angry Candy Tabs (ver.1)

Artists:  A B C D E F G H I J K L M N O P Q R S T U V W X Y Z # 

Angry Candy Tabs (ver.1)

Autolux Tabs
Rating:
4/5 (1 vote)
Angry Candy lessons Tabs too difficult? Try these video lessons and learn fast
                This is Angry Candy by Autolux of the Future Perfect album.

note: He does this thing where he bends a note, holds it, then releases. I will signify
with first the note he's bending, a b for bend, and the note being bent to. when he
I'll just put an r for release. For example: ---5b5(play a five, then bend to 
I wont specify how far to release, so listen to the song and do be your own judge.

tuning, i believe: (from low to high) Eb Ab Db Gb Bb eb
 intro
e-5-6-5--------5-6-5----7---5-6-5--------5-6-5----7---------------|
B-------5--5---------5------------5--5---------5------------------|
G-----------------------------------------------------------------|
D-----------------------------------------------------------------|
A-----------------------------------------------------------------|
E-----------------------------------------------------------------|

 verse 1                           verse 2
e----------------------------------------------------------------------|
B-------------5--------------------------------------------------------|
G---------6---6----------------------------4------------4--------------|
D-7-------7---7--------------------8b9--r------4--7--------4--7--------|
A-7---7---7---7--------------------12------5------5--7--5-----5--------|
E-5---5---5---5---5-5-5-5b6--5-x4--------------5-----5-----5-----------|
                  with dist
 chorus
e----------------------------------------------------------------------|
B--------------------------------------------5-------------------------|
G-------------------------7-7-7-7-7-7-8-8----5-------------------------|
D-10-10-10-11-11-12-12-12-7-7-7-7-7-7-8-8----3-------------------------|
A-8--8--8--9--9--10-10-10-5-5-5-5-5-5-6-6-x4-5-------------------------|
E-------------------------5-5-5-5-5-5-6-6------------------------------|
  heavy dist

after the Dm7sustained, repeat the intro, and verse 2.
then:
e---------------------------------------------------|
B--------------------8b-----------------------------|
G-----5b6--r------5-----7b-----5b6--r---------------|
D-7-----------7------------7----------7--8-9-12b----|
A---------------------------------------------------|
E---------------------------------------------------|

then the chorus gets repeated. on the last chord though, this edition is made:

e--------------------------------------------------------|
B----------------------5-5-5-5-5-5-5-5-------------------|
G----------------------5-5-5-5-5-5-5-5-------------------|
D-7-7-7-7b-7b-7b-7b-7b-3-3-3-3-3-3-3-3-x4----------------|
A----------------------5-5-5-5-5-5-5-5-------------------|
E--------------------------------------------------------|

then, after the bass plays this thingy, the guitar does:

e-----------------------------------------------------|
B--------8---------b9---------------------------------|
G------------------------7(with feedback)-------------|
D-7---10---10--9------x8------------------------------|
A-----------------------------------------------------|
E-----------------------------------------------------|

then the chorus gets repeated, but with four extra measures. the last thing being played
just the Dm7sus being strummed.
            
Submit corrections

comments powered by Disqus
↑ Back to top | Autolux Tabs for Angry Candy. Lyrics for acoustic guitar and electric guitar. Tablatures and chords are parodies/interpretations of the original songs. You may use it for private study, scholarship, research or language learning purposes only