» » »

Send Her To Me Tabs (ver.1)

Artists:  A B C D E F G H I J K L M N O P Q R S T U V W X Y Z # 

Send Her To Me Tabs (ver.1)

Autograph
Rating:
0/5 (0 votes)

Hard to play? Try these video lessons and learn fast.
                                                        AUTOGRAPH
				    "Send Her To Me"



VERSE 1
======
     slide to head
E |-------------------------------------------------------------------|
B |-------------------------------------------------------------------|
G |---9\-------------9--------8--------9--------6--------9--------8---|
D |---7\-------------9--------8--------9--------6--------9--------9---|
A |---7\-------------7--------6--------7--------4--------7------------|
E |-------------------------------------------------------------------|

E |--------------------------------------------------|
B |--------------------------------------------------|
G |--------------------------------------------------| repeat verse 3x
D |--9----9----9----9----9----7--7----7----7----7----|
A |--9----9----9----9----9----7--7----7----7----7----|
E |--7----7----7----7----7----5--5----5----5----5----|

PRECHORUS
===========

E |-------------------------------------------------------------|
B |-------------------------------------------------------------|
G |-------------------------------------------------------------|  X 2
D |--4/-----7---------------------------------------------------|
A |--4/-----7---------------------------------------------------|
E |--2/-----5----7--7--7--7--7--7--7--7--7--7--7--7--7--7--7--7-|

CHORUS
=======

E |-----------------------------------------------------|
B |-----------------------------------------------------|
G |-----------------------------------------------------|    X 3
D |-----10--------------8--------------------------6----|
A |-----10--------------8--------------------------6----|
E |-----8---------------6--------------------------4----|

***REPEAT VERSE & PRECHORUS***


CHORUS
=======

E |----------------------------------------------------|
B |----------------------------------------------------|
G |----------------------------------------------------|    X 3
D |-----10--------------8--------------------------6---|
A |-----10--------------8--------------------------6---|
E |-----8---------------6--------------------------4---|

for the '10' on D string start with tremolo arm held
      inwards, pluck, then release slowly.
E |---------------------------------------------------------|
B |---------------------------------------------------------|
G |---------------------------------------------------------|
D |---_/10--------\8------------6---------------------------|
A |---------------\8------------6---------------------------|
E |---------------\6------------4---------------------------|

CHORUS
=======

E |-----------------------------------------------------|
B |-----------------------------------------------------|
G |-----------------------------------------------------|    X 3
D |-----10--------------8--------------------------6----|
A |-----10--------------8--------------------------6----|
E |-----8---------------6--------------------------4----|


SOLO
=====
  vibrato for 10         bend/release for 12
E |------------------------------------------|
B |------------------------------------------|
G |------------------------------------------|
D |----10~~~~~--^12v---10~~~~~---------------|  x 8
A |------------------------------------------|
E |------------------------------------------|

Then there's the rest of the solo which i have no clue how to transcribe without seeing 
video of steve lynch doing it

AUTOGRAPH ROCK ON!!
            
Hard to play? Try these video lessons and learn fast. | Correct




comments powered by Disqus
↑ Back to top | Tablatures and chords are parodies/interpretations of the original songs. You may use it for private study, scholarship, research or language learning purposes only