>
 >
Turn Up The Radio

Turn Up The Radio Guitar Tabs

Autograph - Turn Up The Radio chords, tabs, tablatures, lyrics

Guitar lessons | Add/correct | Request | Top 50 tabs Artists:  A B C D E F G H I J K L M N O P Q R S T U V W X Y Z 0-9

Turn Up The Radio Guitar Tabs – Autograph

CD, Sheet music, Poster

Do you like Turn Up The Radio? Share with your friends now
Bass TabsChordsDrum TabsTabsTabs v2Tabs v3
#  this file. If you feel that the content of this file may be violating     #
#  copyright law, you may not use the information displayed here in any way. #

turn it up the radio


autograph






e:-----------|
B:-----------|
G:-----------|
D:-----------|
A:-5/--------|
E:-3/--------|


eb:-------------------------------------------|
Bb:-------------------------------------------|
Gb:-------------------------------------------|
Db:--------------------5--------------------5-|
Ab:-5---------------------5-------------------|
Eb:-3-3-3-3-3-3-3-3-3-----3-3-3-3-3-3-3-3-3---|


e:-17bf/-----------------22-22-22/21/20/19/18/17/16/15/14/13/12-----15h18p15-------------|
B:---------------------------------------------------------------------------18-15h18p15-|
G:---------------------------------------------------------------------------------------|
D:---------------------------------------------------------------------------------------|
A:---------------------------------------------------------------------------------------|
E:----------------3/---------------------------------------------------------------------|

e:-----------------------------------14-17-14--13-16-13--12-15-12--10-13-10--9-12-9--7-10-7|
B:-----------------------------------------------------------------------------------------|
G:-17-15h17p15-----------------------------------------------------------------------------|
D:-------------17-15h17p15-----------------------------------------------------------------|
A:-------------------------17-15/----------------------------------------------------------|
E:-----------------------------------------------------------------------------------------|

:-5-8-5--4-6-4--3-5-3--2-4-2--1-3-1-----------------------------------------15--|
:---------------------------------------12-15-12--------------------------------|
:-------------------------------------------------14-12-14-12-----12-12---------|
:-------------------------------------------------------------14---------14-----|
:-------------------------------------------------------------------------------|
:-------------------------------------------------------------------------------|

   pm....................................
eb:----------------------------------------|
Bb:----------------------------------------|
Gb:----------------------------------------|
Db:----------------------------------------|
Ab:-5-5-5-5-5-5-5-5-5-5-5-5-5-5-5-5-5-5-5--|
Eb:-3-3-3-3-3-3-3-3-3-3-3-3-3-3-3-3-3-3-3--|


eb:-------------------------------------------|
Bb:-------------------------------------------|
Gb:-------------------------------------------|
Db:--------------------5--------------------5-|
Ab:-5---------------------5-------------------|
Eb:-3-3-3-3-3-3-3-3-3-----3-3-3-3-3-3-3-3-3---|


e:------------------------|
B:------------------------|
G:------------------------|
D:---5-----3------0-------|
A:-5-----3------1---------|
E:------------------------|


e:----------------------------------|
B:-----------5-5-5--5---------------|
G:-4-4-4--4--5-5-5--5--5--5-5-5-----|
D:-5-5-5--5--5-5-5--5--3--3-3-3-----|
A:-5-5-5--5--3-3-3--3------------5--|
E:-3-3-3--3----------------------3--|

e:------------------------|
B:------------------------|
G:------------------------|
D:---5-----3------0-------|
A:-5-----3------1---------|
E:------------------------|

verse
e:----------------------------------|
B:-----------5-5-5--5---------------|
G:-4-4-4--4--5-5-5--5--5--5-5-5-----|
D:-5-5-5--5--5-5-5--5--3--3-3-3-----|
A:-5-5-5--5--3-3-3--3------------5--|
E:-3-3-3--3----------------------3--|

e:------------------------|
B:------------------------|
G:------------------------|
D:---5-----3------0-------|
A:-5-----3------1---------|
E:------------------------|


e:----------------------------------|
B:-----------5-5-5--5---------------|
G:-4-4-4--4--5-5-5--5--5--5-5-5-----|
D:-5-5-5--5--5-5-5--5--3--3-3-3-----|
A:-5-5-5--5--3-3-3--3------------5--|
E:-3-3-3--3----------------------3--|


:-7nh---------7nh-------------|
:-----7nh---------7nh---------|
:---------7nh---------7nh-----|
:-------------------------7nh-|
:-----------------------------|
:-----------------------------|

  turn it up the radio       i need some music
e:-------------------------------------------------|
B:-------------------------------------------------|
G:-9-----7------7------2------------------12----9--|
D:-9-----7------7------2------5-----2-----12----9--|
A:-7-----5------5------0------5-----2-----10----7--|
E:----------------------------3-----0--------------|

e:-------------------------------------------------|
B:-------------------------------------------------|
G:-9-----7------7------2------------------12----9--|
D:-9-----7------7------2------5-----2-----12----9--|
A:-7-----5------5------0------5-----2-----10----7--|
E:----------------------------3-----0--------------|

eb:----------------------------------------------|
Bb:----------------------------------------------|
Gb:----------------------------------------------|
Db:----------------------------------------------|
Ab:-5-5-5-5-5-5-5-5-5-5-5-5-5-5-5-5-5-5-5--3-4-5-|
Eb:-3-3-3-3-3-3-3-3-3-3-3-3-3-3-3-3-3-3-3--1-2-3-|

e:------------------------|
B:-18b--------------------|
G:-----17b-15-17-15~~~~---|
D:------------------------|
A:------------------------|
E:------------------------|



eb:-------------------------------------------|
Bb:-------------------------------------------|
Gb:-------------------------------------------|
Db:--------------------5--------------------5-|
Ab:-5---------------------5-------------------|
Eb:-3-3-3-3-3-3-3-3-3-----3-3-3-3-3-3-3-3-3---|

verse
e:----------------------------------|
B:-----------5-5-5--5---------------|
G:-4-4-4--4--5-5-5--5--5--5-5-5-----|
D:-5-5-5--5--5-5-5--5--3--3-3-3-----|
A:-5-5-5--5--3-3-3--3------------5--|
E:-3-3-3--3----------------------3--|

e:------------------------|
B:------------------------|
G:------------------------|
D:---5-----3------0-------|
A:-5-----3------1---------|
E:------------------------|


e:----------------------------------|
B:-----------5-5-5--5---------------|
G:-4-4-4--4--5-5-5--5--5--5-5-5-----|
D:-5-5-5--5--5-5-5--5--3--3-3-3-----|
A:-5-5-5--5--3-3-3--3------------5--|
E:-3-3-3--3----------------------3--|


:-7nh---------7nh-------------|
:-----7nh---------7nh---------|
:---------7nh---------7nh-----|
:-------------------------7nh-|
:-----------------------------|
:-----------------------------|

  turn it up the radio       i need some music
e:-------------------------------------------------|
B:-------------------------------------------------|
G:-9-----7------7------2------------------12----9--|
D:-9-----7------7------2------5-----2-----12----9--|
A:-7-----5------5------0------5-----2-----10----7--|
E:----------------------------3-----0--------------|

e:-------------------------------------------------|
B:-------------------------------------------------|
G:-9-----7------7------2------------------12----9--|
D:-9-----7------7------2------5-----2-----12----9--|
A:-7-----5------5------0------5-----2-----10----7--|
E:----------------------------3-----0--------------|


  turn it up the radio       i need some music
e:-------------------------------------------------|
B:-------------------------------------------------|
G:-9-----7------7------2------------------12----9--|
D:-9-----7------7------2------5-----2-----12----9--|
A:-7-----5------5------0------5-----2-----10----7--|
E:----------------------------3-----0--------------|

e:-------------------------------------------------|
B:-------------------------------------------------|
G:-9-----7------7------2------------------12----9--|
D:-9-----7------7------2------5-----2-----12----9--|
A:-7-----5------5------0------5-----2-----10----7--|
E:----------------------------3-----0--------------|


solo
:-----------------10-9--10-12-10-9-10-9---------------------------------------------------|
:-------------9-8-----------------------12-9-10-9---------------------------------------5-|
:---------7-6-------------------------------------11-9-11-9---------------------------5---|
:-----6-5---------------------------------------------------11-9-11-9--7-9-7--5---5-7-----|
:-5-4-------------------------------------------------------------------------------------|
:-----------------------------------------------------------------------------------------|


e:-----------------------------------------------------------------------------17h19p17----|
B:------------------13-14b--17-16-15--14h15p14-----14------------------17b-20b----------19-|
G:-6b-6b-6b---14-16-----------------------------16----16-14-16-14--16b---------------------|
D:-----------------------------------------------------------------------------------------|
A:-----------------------------------------------------------------------------------------|
E:-----------------------------------------------------------------------------------------|

e:-17h20p17----17-22-19----19----------------------------------------7-10-9----------|
B:----------19----------22----22-19-----19----------------------------------10-7-----|
G:-----------------------------------21----21-19--21-19--------------------------9-7-|
D:------------------------------------------------------21-19-21-19------------------|
A:-----------------------------------------------------------------------------------|
E:-----------------------------------------------------------------------------------|

:-------------------------------------------------------------------------------------12p0-|
:-----7p0-----7p0-----7p0-----7p0------------12p0------12p0------12p0------12p0--15p0------|
:-9p0-----9p0-----9p0-----9p0-----9p0---14p0------14p0------14p0-------14p0----------------|
:------------------------------------------------------------------------------------------|
:------------------------------------------------------------------------------------------|
:------------------------------------------------------------------------------------------|

e:------12p0------17p0------17p0-------19p0------19p0-------14p0------14p0-------17b--14b--|
B:-15p0------20p0------20p0-------22p0------22p0-------17p0------17p0------17p0------------|
G:-----------------------------------------------------------------------------------------|
D:-----------------------------------------------------------------------------------------|
A:-----------------------------------------------------------------------------------------|
E:-----------------------------------------------------------------------------------------|

                                          bar/////////////////////////////////////////
:---------------------------------------------------------------------------------------|
:-17b-14b------------------------17-----------------------------------------------------|
:---------16b-14b--16b-14-16-16b----16-14--14h16p14h16p14h16p14h16p14h16p14h16p14h16p14-|
:---------------------------------------------------------------------------------------|
:---------------------------------------------------------------------------------------|
:---------------------------------------------------------------------------------------|


  turn it up the radio       i need some music
e:-------------------------------------------------|
B:-------------------------------------------------|
G:-9-----7------7------2------------------12----9--|
D:-9-----7------7------2------5-----2-----12----9--|
A:-7-----5------5------0------5-----2-----10----7--|
E:----------------------------3-----0--------------|

e:-------------------------------------------------|
B:-------------------------------------------------|
G:-9-----7------7------2------------------12----9--|
D:-9-----7------7------2------5-----2-----12----9--|
A:-7-----5------5------0------5-----2-----10----7--|
E:----------------------------3-----0--------------|


  turn it up the radio       i need some music
e:-------------------------------------------------|
B:-------------------------------------------------|
G:-9-----7------7------2------------------12----9--|
D:-9-----7------7------2------5-----2-----12----9--|
A:-7-----5------5------0------5-----2-----10----7--|
E:----------------------------3-----0--------------|

e:-------------------------------------------------|
B:-------------------------------------------------|
G:-9-----7------7------2------------------12----9--|
D:-9-----7------7------2------5-----2-----12----9--|
A:-7-----5------5------0------5-----2-----10----7--|
E:----------------------------3-----0--------------|


  turn it up the radio       i need some music
e:-------------------------------------------------|
B:-------------------------------------------------|
G:-9-----7------7------2------------------12----9--|
D:-9-----7------7------2------5-----2-----12----9--|
A:-7-----5------5------0------5-----2-----10----7--|
E:----------------------------3-----0--------------|

e:-------------------------------------------------|
B:-------------------------------------------------|
G:-9-----7------7------2------------------12----9--|
D:-9-----7------7------2------5-----2-----12----9--|
A:-7-----5------5------0------5-----2-----10----7--|
E:----------------------------3-----0--------------|


  turn it up the radio       i need some music
e:-------------------------------------------------|
B:-------------------------------------------------|
G:-9-----7------7------2------------------12----9--|
D:-9-----7------7------2------5-----2-----12----9--|
A:-7-----5------5------0------5-----2-----10----7--|
E:----------------------------3-----0--------------|

e:-------------------------------------------------|
B:-------------------------------------------------|
G:-9-----7------7------2------------------12----9--|
D:-9-----7------7------2------5-----2-----12----9--|
A:-7-----5------5------0------5-----2-----10----7--|
E:----------------------------3-----0--------------|

e:---------------------------------------------------------|
B:-17--15----15-14-----------------------------------------|
G:---------------------------------------------------------|
D:---------------------------------------------------------|
A:---------------------------------------------------------|
E:---------------------------------------------------------|


Have Fun And Rock On





Comments


Popular Autograph tabs & chords
In The Night Bass Tabs
Turn Up The Radio Bass Tabs
Turn Up The Radio Chords
Loud And Clear Drum Tabs
Friday Tabs
Hammerhead Tabs
Send Her To Me Tabs
Thats The Stuff Tabs
Thrill Of Love Tabs
Turn Up The Radio 2 Tabs


Song lyrics



↑ Back to top | Tablatures and chords are parodies/interpretations of the original songs. You may use it for private study, scholarship, research or language learning purposes only
© 2014 AZChords.com Contact us | Privacy policy | DMCA | Add/correct tabs | Request tabs | Top 50 tabs