>
 >
Real A Lie

Real A Lie Guitar Tabs

Auf Der Maur - Real A Lie chords, tabs, tablatures, lyrics

Guitar lessons | Add/correct | Request | Top 50 tabs Artists:  A B C D E F G H I J K L M N O P Q R S T U V W X Y Z 0-9

Real A Lie Guitar Tabs – Auf Der Maur

CD, Sheet music, Poster

Do you like Real A Lie? Share with your friends now
TabsTabs v2
-------------------------------------------------------------------------------
                             Real A Lie - Melissa Auf Der Maur
-------------------------------------------------------------------------------




This is a rough, rough transcript of Real A Lie by Melissa Auf Der Maur. Since her
album's not even out yet in North America, I haven't been able to make an accurate tab.
I don't think there really are 4 guitars, but when breaking it down, I found there to be
four overlapping guitar parts in the intro alone. 

Tuning: Dropped D

Intro:

1st guitar (Intro)

e|----------------------------------|
G|----------------------------------|
B|----------------------------------|
D|-22x22-2222x22--3333x33--5555x55--| Repeat x 4
A|-00x00-0000x00--0000x00--0000x00--|
D|----------------------------------|

2nd guitar

e|-7777-5--7777-5--7777-5--7777-5-------|
B|--------------------------------------|
G|--------------------------------------|
D|--------------------------------------| Repeat X 4
A|--------------------------------------|
D|--------------------------------------|

3rd guitar

e|-----------------------------------------|
B|-----------------565------565------------|
G|---------------------7--------7----------|
D|-----------------------7--------7--------| Repeat x 4
A|-----------------------------------------|
D|-----------------------------------------|

4th guitar (and it's the twelfth fret, thirteenth fret and tenth fret) 
Repeat x 2 (this comes in the last two bars) 

e|-1212121212--1212121212--1313131313-1010101010------|
B|----------------------------------------------------|
G|----------------------------------------------------|
D|----------------------------------------------------|
A|----------------------------------------------------|
D|----------------------------------------------------|

Verse, 1st guitar ("So free, to so fuck, so aroused...")

e|------------------------------------|
B|------------------------------------|
G|------------------------------------|
D|-22222-33322--33333-22222-----------| Repeat x 4
A|-00000-00000--33333-22222-----------|
D|---------------33333-22222----------|

Pre-Chorus ("Real a lie, you're truly mine...")

e|---------------------------------------------------|
B|---------------------------------------------------|
G|--000000--777777---6-6-6-6-6-6--6666666666-777777--|
D|--999999--999999---9-9-9-9-9-9--9999999999-999999--|
A|-------------------101010101010--------------------|
D|---------------------------------------------------|

Chorus ("Real a lie, you're truly mine, I am the kind, living blind...")

e|----------------------|
B|----------------------|
G|--4444--5555--9999----|
D|--4444--5555--9999----| Repeat until second verse 
A|--2222--3333--7777----| 
D|----------------------|

Second Verse

Break ("We've been so far...")

e|--------------------------|
B|--------------------------|
G|--------------------------|
D|--2-2--2-2--3--3---5--5---| 
A|--2-2--2-2--3--3---5--5---|
D|--2-2--2-2--3--3---5--5---|

After this part, the strumming is just faster and longer but some chords. 

"Do-do-do-do-dooooo..."

e|---------------------------|
B|---------------------------|
G|--4444-5555-9999-7777-9999-|
D|--4444-5555-9999-7777-9999-| 
A|--2222-3333-7777-5555-7777-|
D|---------------------------|

End note:

e|------|
B|------|
G|------|
D|--2---| 
A|--2---|
D|--2---|

Not sure of the outro, too exhausted, leave me alone.

| /  slide up
| \  slide down
| h  hammer-on
| p  pull-off
| ~  vibrato
| +  harmonic
| x  Mute note
===============================================================================





Comments


Popular Auf Der Maur tabs & chords
Followed The Waves Bass Tabs
Lightning Is My Girl Bass Tabs
Skin Receiver Bass Tabs
Devils Plaything Tabs
Followed The Waves Tabs
Isis Speaks Tabs
Real A Lie 1 Tabs
Taste You Tabs
Taste You 1 Tabs
Taste You Ukulele


Song lyrics



↑ Back to top | Tablatures and chords are parodies/interpretations of the original songs. You may use it for private study, scholarship, research or language learning purposes only
© 2014 AZChords.com Contact us | Privacy policy | DMCA | Add/correct tabs | Request tabs | Top 50 tabs