» » »

Audacious, Mighty Tabs (ver.1)

Artists:  A B C D E F G H I J K L M N O P Q R S T U V W X Y Z # 

Mighty Tabs (ver.1)

Audacious Tabs
 Rating:
4/5 (4 votes)
Mighty lessons Tabs too difficult? Try these video lessons and learn fast
                
Awesome song to play live, nice and simple too :)

I'm trying to be objective and say that this tab is a novice, but I have been playing 
3 years so it could be harder than I realise...

The lead part is almost all based around this VERY basic chord shape.

E-------------------------|----------------------------|
B-----6------6------5~~~~~|-----6------6------5--5h6p5-|
G---5------5------5-------|---5------5------5----------|
D-0------0------0---------|-0------0------0------------|
A-------------------------|----------------------------|
E-------------------------|----------------------------|

That covers the verse and everything else basically. When it starts to build up, still 
the same riff, but add a bit of distortion and palm mute every note apart from the 
ones, sounds pretty cool :)

Build up/chorus:
When it gets a lot louder and sounds a bit faster, this might not be what he does on the 
but it sounds pretty cool.

E-------------------|
B---6--6--5--5--5h6-|
G--5--5--5--5--5----|
D-0--0--0--0--0-----|
A-------------------|
E-------------------|

That's the same chord shape, but the riff is rather a lot faster. I'll guitar pro it 
so you can hear it too.

Chords for the whole thing if your interested in the rhythm part for building up:
  D(minor)                        Bb                      C
E----------------|---------------|---------------|----------------|
B----------------|---------------|---------------|----------------|
G-7-7-7-7-7-7-7-7|7-7-7-7-7-7-7-7|---------------|--------5-5-5-5-|
D-7-7-7-7-7-7-7-7|7-7-7-7-7-7-7-7|8-8-8-8-8-8-8-8|8-8-8-8-5-5-5-5-|
A-5-5-5-5-5-5-5-5|5-5-5-5-5-5-5-5|8-8-8-8-8-8-8-8|8-8-8-8-3-3-3-3-|
E----------------|---------------|6-6-6-6-6-6-6-6|6-6-6-6---------|

There's a nice little riff that sounds cool when it gets a lot louder. I couldnt work 
the actual thing he plays but this sounds just as good.

E--------------------------------|-------------------------------|
B--------------------------------|-------------------------------|
G--------------------------------|-------------------------------|
D-0-0-2-0-0-3-0-0-5-0-0-3-0-0-2-0|0-0-2-0-0-3-0-0-5-0-0-3-0-0-7~~|
A--------------------------------|-------------------------------|
E--------------------------------|-------------------------------|
            
Submit corrections

comments powered by Disqus
↑ Back to top | Audacious Tabs for Mighty. Lyrics for acoustic guitar and electric guitar. Tablatures and chords are parodies/interpretations of the original songs. You may use it for private study, scholarship, research or language learning purposes only