>
 >
Shaking Hand Incision 1

Shaking Hand Incision 1 Guitar Tabs

At The Drive-In - Shaking Hand Incision 1 chords, tabs, tablatures, lyrics

Guitar lessons | Add/correct | Request | Top 50 tabs Artists:  A B C D E F G H I J K L M N O P Q R S T U V W X Y Z 0-9

Shaking Hand Incision 1 Guitar Tabs – At The Drive-In

CD, Sheet music, Poster

Do you like Shaking Hand Incision 1? Share with your friends now
Bass TabsTabsTabs v2
-------------------------------------------------------------------------------
                             Shaking Hand Incision - At the Drive-in
-------------------------------------------------------------------------------

Tuning:Standard

 Riff A: 
e|-----------------------------------------------|
B|-----------------------------------------------|
G|-----------------------------------------------|
D|-----------------------------------------------|
A|-----------------------------------------------|
E|---/5---5--5-5----0-2--3--2--0---0-2-0---------|
         Play 2x- Then Drum bit, then play 4x. 

 Riff A(Second Octave) If Wanted: (Play 4x after Drum bit)
e|-----------------------------------------------|
B|-----------------------------------------------|
G|-----------------------------------------------|
D|--/7---7--7-7----2-4--5--4--2---2-4-2----------|
A|-----------------------------------------------|
E|-----------------------------------------------|

 Riff B @ 0:32 Guitar 1
e|------5----5-----7-5---------------5----------------5-----------------|
B|----5----5-----5------b7--5------5----7b--5-------5----7b--5----------|
G|--7----7-----6-------------6---5------------6---4------------6--4-----|
D|----------------------------------------------------------------------|
A|----------------------------------------------------------------------|
E|----------------------------------------------------------------------|

Riff B @ 0:32 Guitar 2
e|-----------|--------------|----------------|---------------------|
B|-----------|--------------|----------------|---------------------|
G|--7-7-7----|-4-4-4--------|----5-5-5-------|--4-4-4--------------|
D|--7-7-7----|-6-6-6--------|----5-5-5-------|--4-4-4--------------|
A|--5-5-5----|-6-6-6--------|----3-3-3-------|--2-2-2--------------|
E|-----------|--------------|----------------|---------------------|

 Riff A: 
e|-----------------------------------------------|
B|-----------------------------------------------|
G|-----------------------------------------------|
D|-----------------------------------------------|
A|-----------------------------------------------|
E|---/5---5--5-5----0-2--3--2--0---0-2-0---------|
        

 Riff A(Second Octave) If Wanted:
e|-----------------------------------------------|
B|-----------------------------------------------|
G|-----------------------------------------------|
D|--/7---7--7-7----2-4--5--4--2---2-4-2----------|
A|-----------------------------------------------|
E|-----------------------------------------------|

 Riff B Again @ 0:56 Guitar 1
e|------5----5-----7-5---------------5----------------5-----------------|
B|----5----5-----5------b7--5------5----7b--5-------5----7b--5----------|
G|--7----7-----6-------------6---5------------6---4------------6--4-----|
D|----------------------------------------------------------------------|
A|----------------------------------------------------------------------|
E|----------------------------------------------------------------------|

Riff B @ 0:56 Guitar 2
e|-----------|--------------|----------------|---------------------|
B|-----------|--------------|----------------|---------------------|
G|--7-7-7----|-4-4-4--------|----5-5-5-------|--4-4-4--------------|
D|--7-7-7----|-6-6-6--------|----5-5-5-------|--4-4-4--------------|
A|--5-5-5----|-6-6-6--------|----3-3-3-------|--2-2-2--------------|
E|-----------|--------------|----------------|---------------------|

 Chorus @ 1:08 (One guitar creates feedback) The other plays...
e|--------------------------------------------|--------------------|
B|--------------------------------------------|--------------------|
G|------0--0-------0--0-------0--0------0--0--|--3-3-3----7-7-7----|
D|----4---4-4----4---4-4----4---4-4---4---4-4-|--5-5-5----9-9-9----|
A|--5----------5----------5---------5---------|--5-5-5----9-9-9----|
E|--------------------------------------------|--------------------|
                                              Both Guitars Play those chords

 Riff A @ 1:41 Guitar 1
e|-----------------------------------------------|
B|-----------------------------------------------|
G|-----------------------------------------------|
D|-----------------------------------------------|
A|-----------------------------------------------|
E|---/5---5--5-5----0-2--3--2--0---0-2-0---------|
        

 Riff A(Second Octave) If Wanted:
e|-----------------------------------------------|
B|-----------------------------------------------|
G|-----------------------------------------------|
D|--/7---7--7-7----2-4--5--4--2---2-4-2----------|
A|-----------------------------------------------|
E|-----------------------------------------------|


 Riff B Again @ 1:54 Guitar 1
e|------5----5-----7-5---------------5----------------5-----------------|
B|----5----5-----5------b7--5------5----7b--5-------5----7b--5----------|
G|--7----7-----6-------------6---5------------6---4------------6--4-----|
D|----------------------------------------------------------------------|
A|----------------------------------------------------------------------|
E|----------------------------------------------------------------------|


Riff B @ 1:54 Guitar 2
e|-----------|--------------|----------------|---------------------|
B|-----------|--------------|----------------|---------------------|
G|--7-7-7----|-4-4-4--------|----5-5-5-------|--4-4-4--------------|
D|--7-7-7----|-6-6-6--------|----5-5-5-------|--4-4-4--------------|
A|--5-5-5----|-6-6-6--------|----3-3-3-------|--2-2-2--------------|
E|-----------|--------------|----------------|---------------------|

Riff D @ 2:07 Guitar 1
e|-------------------------------------------------------|
B|-------------------------------------------------------|
G|--------5-----5-----5-----5-----5-----5-----5-----5----|
D|------4-----4-----4-----4-----3-----3-----3-----3------|
A|----2-----2-----2-----2-----2-----2-----2-----2--------|
E|-------------------------------------------------------|
 @ 2:21
e|------5--------7---5----------------|
B|-----------------------5---7--------|
G|------------------------------------|
D|------------------------------------|
A|------------------------------------|
E|------------------------------------|

Riff E @ 2:41 -Figure out the Ryhtym Guitar 1
e|------------------------|
B|------------------------|
G|--2-----4---------------|
D|--2-----4----4----------|
A|--0-----2----4----------|
E|-------------2----------|

Riff E Guitar 2: 
e|--7h-9-7--5-7-5---------|
B|----------------5-h-7---|
G|------------------------|
D|------------------------|
A|------------------------|
E|------------------------|

Riff F @ 2:43
e|-------------------------------|
B|--4-44-4-----5-55-5------------|
G|--x-xx-x-----x-xx-x------------|
D|--2-22-2-----3-33-3------------|
A|-------------------------------|
E|-------------------------------|
| /  slide up
| \  slide down
| h  hammer-on
| p  pull-off
| ~  vibrato
| +  harmonic
| x  Mute note
===============================================================================





Comments


Popular At The Drive-In tabs & chords
A Devil Among The Tailors Bass Tabs
Give It A Name Bass Tabs
Honest To A Fault Bass Tabs
Mannequin Republic 2 Bass Tabs
One Armed Sissor Bass Tabs
Winter Month Novelty Bass Tabs
Cosmonaut 2 Tabs
Extracurricular 1 Tabs
One Armed Scissor 4 Tabs
Ursa Minor Tabs


Song lyrics



↑ Back to top | Tablatures and chords are parodies/interpretations of the original songs. You may use it for private study, scholarship, research or language learning purposes only
© 2014 AZChords.com Contact us | Privacy policy | DMCA | Add/correct tabs | Request tabs | Top 50 tabs