>
 >
Shaking Hand Inscision 1

Shaking Hand Inscision 1 Guitar Tabs

At The Drive-In - Shaking Hand Inscision 1 chords, tabs, tablatures, lyrics

Guitar lessons | Add/correct | Request | Top 50 tabs Artists:  A B C D E F G H I J K L M N O P Q R S T U V W X Y Z 0-9

Shaking Hand Inscision 1 Guitar Tabs – At The Drive-In

CD, Sheet music, Poster

Do you like Shaking Hand Inscision 1? Share with your friends now
TabsTabs v2


VERSE:	 GUITAR 1
e|------------------------------------------------------------------|
B|------------------------------------------------------------------|
G|------------------------------------------------------------------|
D|-------------4-5-4------------------------------------------------|
A|-7-7-7-7-7/0-------7-5-7------------------------------------------|
E|------------------------------------------------------------------|
	GUITAR 2
e|------------------------------------------------------------------|
B|------------------------------------------------------------------|
G|------------------------------------------------------------------|
D|------------------------------------------------------------------|
A|------------------------------------------------------------------|
E|--5--5--2-3-2-0-2-P0----------------------------------------------|

VERSE2:	GUITAR 2	
e|------------------------------------------------------------------|
B|------------------------------------------------------------------|
G|------------------------------------------------------------------|
D|------------------------------------------------------------------|
A|------------------------------------------------------------------|
E|--5--5--2-3-2-0-2-P0--5-7-5--2-3-2-0-2-P0-------------------------|

CHORUS:	GUITAR 1

e|--0-5---0-5---0-5—7/5----------------0-5--------0-3---------------|
B|-3----3-----3---------7/5---3-5-3--1-----7-5--1-----7-8-7--3------|
G|------------------------------------------------------------------|
D|------------------------------------------------------------------|
A|------------------------------------------------------------------|
E|------------------------------------------------------------------|
	GUITAR 2
e|------------------------------------------------------------------|
B|------------------------------------------------------------------|
G|-------0-------0------0----------0T-0-----------------------------|
D|--0---------------------------------------------------------------|
A|----------4-------3---------2-------------------------------------|
E|------------------------------------------------------------------|

INTERLUDE:	GUITAR 1

e|----------------------X---X---------------------------------------|
B|-----H7-(SUSTAIN)-----X---X---------------------------------------|
G|----------------------0---0---------------------------------------|
D|----------------------5---0---------------------------------------|
A|----------------------3---5---------------------------------------|
E|----------------------X---3---------------------------------------|
		GUITAR 2
e|------------------------------X/----------------------------------|
B|------------------------------X/----------------------------------|
G|---------0--------------------X/0---------------------------------|
D|--0-H4-4---4--0-H4-H5-P4-P0---0/0---------------------------------|
A|------------------------------9/10/9------------------------------|
E|------------------------------X/----------------------------------|

CHORUS 2:	GUITAR 1

e|--0--0-0—-0--0-0--7--5--0--0--0--0--0--0--0--0--0-----------------|
B|--7--5-5—-7--5-5--0--0--7--5--7--5—-7B-5--0--0--0-----------------|
G|--0--0-0—-0--0-0--------------0--0--0--0--2--2--2-----------------|
D|------------------------------------------------------------------|
A|------------------------------------------------------------------|
E|------------------------------------------------------------------|
		GUITAR 2
e|------------------------------------------------------------------|
B|------------------------------------------------------------------|
G|--0-0-0--0-0-0--0-0-0--0-0-0--0-0-0--0-0-0--0-0-0—-0-0-0----------|
D|--0-0-0--0-0-0--5-5-5--5-5-5--5-5-5--5-5-5--5-5-5--5-5-5----------|
A|--5-5-5--5-5-5--4-4-4—-4-4-4--3-3-3--3-3-3--2-2-2—-2-2-2----------|
E|------------------------------------------------------------------|

BREAKDOWN:	GUITAR 1

e|------------------------------------------------------------------|
B|------------------------------------------------------------------|
G|------------------------------------------------------------------|
D|---------0------0-------0-------0------0------0-------0-----------|
A|------12-----12—----12------12------12-----12-----12-------12-----|
E|---14-----14-----14------14------13-----13-----13-------13--------|

e|------------------------------------------------------------------|
B|------------------------------------------------------------------|
G|-------------------------------------------------14--14-16-14-----|
D|--0------0------0-------0-------0------0------0-----0---------0---|
A|------12-----12—----12------12------12-----12---------------------|
E|---14-----14-----14------14------13-----13------------------------|

e|------------------------------------------------------------------|
B|------------------------------------------------------------------|
G|------------------------------------------------------------------|
D|---------0------0-------0-------0------0------0-----------X-X-X-X-|
A|------12-----12—----12------12------12-----12-------------X-X-X-X-|
E|---14-----14-----14------14------13-----13-----13---------X-X-X-X-|
		GUITAR 2
e|--5--5--5--3--5---------------------------------------------------|
B|--3--5--3--2--6---------------------------------------------------|
G|--------0---------------------------------------------------------|
D|------------------------------------------------------------------|
A|------------------------------------------------------------------|
E|------------------------------------------------------------------|

STICHED LIPS…:	GUITAR 1

e|-0--0-0-0---10-7-0------0-0-0-10-7-0------------------------------|
B|-5--7-5-5-0--------7-5--7-5-5--------7-P0-0-7/5-------------------|
G|------------------------------------------------------------------|
D|------------------------------------------------------------------|
A|------------------------------------------------------------------|
E|------------------------------------------------------------------|
			GUITAR 2
e|------------------------------------------------------------------|
B|------------------------------------------------------------------|
G|--2-2-2-5-5-------------------------------------------------------|
D|--2-2-2-0-0-5-5-5-------------------------------------------------|
A|--0-0-0-3-3-5-5-5-------------------------------------------------|
E|------------3-5-3-------------------------------------------------|
NEVER AGAIN…:GUITAR 1

e|------------------------------------------------------------------|
B|------------------------------------------------------------------|
G|------------------------------------------------------------------|
D|--0-0-0--0-0-0--0-0-0--0-0-0--------------------------------------|
A|--5-5-5--5-5-5--3-3-3--3-3-3--7-7-7--7-7-7/3-3-3--3-3-3-----------|
E|------------------------------------------------------------------|
	+CRAZY EFFECT
e|------------------------------------------------------------------|
B|----8---------8---------------------------------------------------|
G|------7---------7-------------------------------------------------|
D|--------7/5-------7-5B--------------------------------------------|
A|------------------------------------------------------------------|
E|------------------------------------------------------------------|
		GUITAR 2
e|------------------------------------------------------------------|
B|------------------------------------------------------------------|
G|----------------0-0-0-0-0-0-0-0-----------------------------------|
D|--4-4-4-4-4-4-4-5-5-5-5-5-5-5-5-4-4-4-4-4-4-4-5-5-5-5-5-5-5-------|
A|--0-0-0-0-0-0-0-0-0-0-0-0-0-0-0-----------------------------------|
E|------------------------------------------------------------------|

OUTRO:GUITAR 1

e|------------------------------------------------------------------|
B|------------------------------------------------------------------|
G|------------------------------------------------------------------|
D|------------------------------------------------------------------|
A|--5--3/5-—3/5—-5-—3/5---------------------------------------------|
E|------------------------------------------------------------------|
	GUITAR 2
e|------------------------------------------------------------------|
B|------------------------------------------------------------------|
G|------------------------------------------------------------------|
D|--0/0/0/0--0-/0---------------------------------------------------|
A|--5/7/9/10-10/12--------------------------------------------------|
E|------------------------------------------------------------------|

END-AMAZING SONG BY AN AMAZING BAND





Comments


Popular At The Drive-In tabs & chords
300mhz Bass Tabs
Give It A Name 1 Bass Tabs
Initiation Bass Tabs
Onearmedscissor Bass Tabs
Speechless Bass Tabs
Ebroglio Chords
Arcarsenal Tabs
Arcasenal Tabs
Blue Tag Tabs
Coating Of Arms Tabs


Song lyrics



↑ Back to top | Tablatures and chords are parodies/interpretations of the original songs. You may use it for private study, scholarship, research or language learning purposes only
© 2014 AZChords.com Contact us | Privacy policy | DMCA | Add/correct tabs | Request tabs | Top 50 tabs