» » »

At The Drive-In, Honest To A Fault Tabs (ver.2)

Artists:  A B C D E F G H I J K L M N O P Q R S T U V W X Y Z # 

Honest To A Fault Tabs (ver.2)

At The Drive-In Tabs
 Rating:
4/5 (4 votes)
Honest To A Fault lessons Tabs too difficult? Try these video lessons and learn fast
1
                Tuning: Standard (EADGBE)

both guitars
-----------------
-----------------
-------7-77-7----
--4444-7-77-7-2--
--4444-5-55-5-2--
--2222--------0--

guitar 1
----------------------------------------             -----------
---------------------------------------- second time -----------
--6-6-6-6-7-7-7-7-6-6-6-6-12-11-11-9-9-- through end --4-4-4-4--
--x-x-x-x-x-x-x-x-x-x-x-x--x--x--x-x-x-- on this     --x-x-x-x--
--4-4-4-4-5-5-5-5-4-4-4-4-10--9--9-7-7--             --2-2-2-2--
----------------------------------------             -----------

guitar 2
-----------------------------------             -----------
----------------------------------- second time -----------
--------------------------7-77-77-- through end --4-44-44--
--7-77-77-9-99-99-4-44-44-7-77-77-- on this     --4-44-44--
--7-77-77-9-99-99-4-44-44-5-55-55--             --2-22-22--
--5-55-55-7-77-77-2-22-22----------             -----------

guitar 1
-------------------------------------
----10------10-------10-------10-----
----11------11-------11-------11-----
--9----11------11-12----12-------11--
-------------------------------------
-------------------------------------

guitar 2                                 these riffs are lined up how they are supposed
-------------------------------------    to be played together
----10------10-------10-------10-----
----11------11-------11-------11-----
--9----11-7----11-12----12-11----11--
-------------------------------------
-------------------------------------
            
Submit corrections

comments powered by Disqus
↑ Back to top | At The Drive-In Tabs for Honest To A Fault. Lyrics for acoustic guitar and electric guitar. 1 Tablatures and chords are parodies/interpretations of the original songs. You may use it for private study, scholarship, research or language learning purposes only