» » »

Blue Tag Tabs (ver.2)

Artists:  A B C D E F G H I J K L M N O P Q R S T U V W X Y Z # 

Blue Tag Tabs (ver.2)

At The Drive-In
Rating:
0/5 (0 votes)

Hard to play? Try these video lessons and learn fast.
                At The Drive In
Blue Tag
Acrobatic Tenement

Intro

gtr. 1
-------------------------I----------------------------------------------------|
-------------------------I----------------------------------------------------|
12-12-12-11-11-11-11-11--I--6-------------------------------------------------|
9--9--9--9--9--9--9--9---I--7-----arppegiate----------------------------------|
10-10-10-10-10-10-10-10--I--7-------------------------------------------------|
-------------------------I--5-------------------------------------------------|

gtr.2
------------------I----------------------|
------------------I----------------------|
----------7-6-----I--0-6-7-----7----7----|
----7----------7--I----------------------|
7-9----0----------I----------------------|
------------------I----------------------|


Verse

gtr.1
--------------------------------|
--------------------------------|
--8-8-9-8--8-9-8--8-9-8-11-8-9--|
--X-X-X-X--X-X-X--X-X-X-XX-X-X--|
--7-7-7-7--7-7-7--7-7-7-7--7-7--|
--0-0-0-0--0-0-0--0-0-0-0--0-0--|


A-----B-----C#-------------------

Chorus


G-----A-----B--C----------

G-----A-----B--C----------

G-----A-----B--C----------

G-----A-----B--C----------A--------------


Verse

Chorus

Bridge:
Use the same chords as the intro and just strum them more

 -then

W/ DISTORTION (for feedback)
-----------------------------------------------------------------|
-----------------------------------------------------------------|
--9--9--9--9--9--9--9--9--9--9--9--9--9--9-----------------------|
--X--X--X--X--X--X--X--X--X--X--X--X--X--X-----------------------|
--7--7--7--7--7--7--7--7--7--7--7--7--7--7-----------------------|
--0--0--0--0--0--0--0--0--0--0--0--0--0--0-----------------------|

then

something with these chords i think

-----------------------------------|
-----------------------------------|
-----------------------------------|
--9----10----7---------------------|
--X----X-----X---------------------|
--7----8-----5---------------------|

Chorus

End with G
            
Hard to play? Try these video lessons and learn fast. | Correct




comments powered by Disqus
↑ Back to top | Tablatures and chords are parodies/interpretations of the original songs. You may use it for private study, scholarship, research or language learning purposes only