» » »

A Static Lullaby, The Shooting Star That Destroyed Us Tabs (ver.1)

Artists:  A B C D E F G H I J K L M N O P Q R S T U V W X Y Z # 

The Shooting Star That Destroyed Us Tabs (ver.1)

A Static Lullaby Tabs
 Rating:
4/5 (5 votes)
The Shooting Star That Destroyed Us lessons Tabs too difficult? Try these video lessons and learn fast
1
                ok im pretty sure this tab is 95.9% correct.Guitar 2 is after Guitar 1


or talk to me on msn or aim

Guitar 1:Nate/John
Guitar 2:Dan

-------------------
Guitar 1:Nate/John
-------------------

Intro PM
E|------------------------------------------------------------|
B|------------------------------------------------------------|
G|--3-3-3-3-3-3-3-3--2-2-2-2-2-2-2-0--10-10-10-10-10-10-10-10-|
D|-5-5-5-5-5-5-5-5--0-0-0-0-0-0-0-0--7--7--7--7--7--7--7--7---|
A|------------------------------------------------------------|
D|------------------------------------------------------------|

Intro Continued PM continued
E|-----------------------------------------------------------|
B|-----------------------------------------------------------|
G|--10-10-10-10-10-10-10-10----------------------------------|
D|-8--8--8--8--8--8--8--8------------------------------------|
A|-----------------------------------------------------------|
D|-----------------------------------------------------------|

then do the intro the second time with out Palm Mute

Pre-Chorus: PM 2x
E|--------------------------------------------------------------------------|
B|--------------------------------------------------------------------------|
G|--------------------------------------------------------------------------|
D|--333---------------------------------------------------------------------|
A|--333-3333333333333333-0000000000000000-7777777777777777-8888888888888888-|
D|--333-3333333333333333-0000000000000000-7777777777777777-8888888888888888-|

Chorus: 2x
E|-------------------------------------------------------------------------|
B|-------------------------------------------------------------------------|
G|-------------------------------------------------------------------------|
D|--3333333333333333-0000000000000000-7777777777777777-8888888888888888----|
A|--3333333333333333-0000000000000000-7777777777777777-8888888888888888----|
D|--3333333333333333-0000000000000000-7777777777777777-8888888888888888----|

Post-Chorus: 4x
E|------------------------------------------------------------------|
B|------------------------------------------------------------------|
G|--9---7--------10/12--9--7---3------------------------------------|
D|--X---X---------X--X--X--X---X------------------------------------|
A|--7---5---------8-10--7--5---1------------------------------------|
D|------------------------------------------------------------------|

Post-Chorus 2nd part
E|------------------------------------------------------------------|
B|------------------------------------------------------------------|
G|-----7--7--7------------------------------------------------------|
D|-----7--7--7------------------------------------------------------|
A|-----5--5--5------------------------------------------------------|
D|------------------------------------------------------------------|

Chorus: 2x

bridge
E|----------------------10----10-|
B|--------------------9--------9-|
G|------------------7----------7-|
D|-------------------------------|
A|-------------------------------|
D|-------------------------------|

bridge continued: 8x
E|--------------------------------|
B|--------------------------------|
G|-----7-------5--------7-7-7-----|
D|-----7-------5--------7-7-7-----|
A|-----5-2-3-0-3--2-3-0-5-5-5-----|
D|-------2-3-0----2-3-0-----------|

"Your Eyes" Part: 4x
E|--------------------------------|
B|--------------------------------|
G|--------------------------------|
D|-0--0000--2--2222--3--3333------|
A|-0--0000--2--2222--3--3333------|
D|-0--0000--2--2222--3--3333------|

Bridge:
E|-------------------------------------------------|
B|-------------------------------------------------|
G|--9---10---9---10---14---10---14-----17----------|
D|--x----x---x----x----x----x----x------x----------|
A|--7----8---7----8---12----8---12-----15----------|
D|-------------------------------------------------|

"Your Eyes"part 4x

Post-Bridge: 2x                | once
E|-----------------------------|-----------------|
B|-----------------------------|-----------------|
G|--777777--999999-101010101010|-----------------|
D|--xxxxxx--xxxxxx--x-x-x-x-x-x|-----------------|
A|--555555--777777--8-8-8-8-8-8|-----0-2-3-0-5-3-|
D|-----------------------------|-----0-2-3-0-5-3-|  Repeat this another time

Intro once on Palm Mute
then
Chorus

outro after guitar 2's outro
E|-------------|
B|-------------|
G|-------------|
D|--3-3--------|
A|--3-3--------|
D|--3-3--------|

-----------------------
Guitar 2:Dan
-----------------------

Intro:
E|-----------------------|
B|-----------------------|
G|-----------------------|
D|-3------xx3~----0~-----|
A|-3------xx3~----0~-----|
D|-3------xx3~----0~-----|

Pre-Chorus:
E|----------------------------------------------------------|
B|----------------------------------------------------------|
G|----------------------------------------------------------|
D|---3-3-3--3-3-3--3-3-3--3-3-3--0-0-0--0-0-0--0-0-0--0-0-0-|
A|---3-3-3--3-3-3--3-3-3--3-3-3--0-0-0--0-0-0--0-0-0--0-0-0-|
D|---3-3-3--3-3-3--3-3-3--3-3-3--0-0-0--0-0-0--0-0-0--0-0-0-|
PM          . .    . .    . .    . .    . .    . .    . .

Pre-Chorus Continued
E|----------------------------------------------------------|
B|----------------------------------------------------------|
G|----------------------------------------------------------|
D|---7-7-7--7-7-7--7-7-7--7-7-7--8-8-8--8-8-8--8-8-8--8-8-8-|
A|---7-7-7--7-7-7--7-7-7--7-7-7--8-8-8--8-8-8--8-8-8--8-8-8-|
D|---7-7-7--7-7-7--7-7-7--7-7-7--8-8-8--8-8-8--8-8-8--8-8-8-|
PM   . .    . .    . .    . .    . .    . .    . .    . .

Do this whole Pre-Chorus 2x

Chorus: 2x
E|-----------------------------------------------------------------------|
B|-----------------------------------------------------------------------|
G|------------------------------------2222222222222222-3333333333333333--|
D|--3333333333333333-0000000000000000-2222222222222222-3333333333333333--|
A|--3333333333333333-0000000000000000-0000000000000000-1111111111111111--|
D|--3333333333333333-0000000000000000------------------------------------|

Post-Chorus
E|------------------------101010101010101010101010101010101010101010-------|
B|------------------------101010101010101010101010101010101010101010-------|
G|-------------------------------------------------------------------------|
D|-0~--------0~------0--0---------------------------------------------0-0~-|
A|-0~--------0~------0--0---------------------------------------------0-0~-|
D|-0~--------0~---------0-----------------------------------------------0~-|

Post-Chorus Continued: 2x
E|---------------------------------------------------------------|
B|---------------------------------------------------------------|
G|---------------------------------------------------------------|
D|--121212-888-777-101010101010----121212-888-777-10101010101010-|
A|---------------------------------------------------------------|
D|---------------------------------------------------------------|
PM   . . . ... ... ............     . . . ... ...
Post-Chorus prt 2: 2x
E|--------------------------------------------------------------|
B|--------------------------------------------------------------|
G|--------------------------------------------------------------|
D|--121212-888-777-101010101010----121212-888-777-101010101010--|
A|--------------------------------------------------------------|
D|--------------------------------------------------------------|

Chorus

bridge
E|---------------------------------------------------|
B|---------------------------------------------------|
G|---------------------------------------------------|
D|--0~--------------------------------------0--------|
A|--0~--------------------------------------0--------|
D|--0~--------------------------------------0--------|

bridge continued: 5x
E|--------------------------------|
B|--------------------------------|
G|-----7-------5--------7-7-7-----|
D|-----7-------5--------7-7-7-----|
A|-----5-2-3-0-3--2-3-0-5-5-5-----|
D|-------2-3-0----2-3-0-----------|

bridge after 5th time doing that
E|--1313131313131313131313131313131313131313131313131313----|
B|--1313131313131313131313131313131313131313131313131313----|
G|----------------------------------------------------------|
D|----------------------------------------------------------|
A|----------------------------------------------------------|
D|----------------------------------------------------------|


"Your Eyes" Part: 4x
E|--------------------------------|
B|--------------------------------|
G|--------------------------------|
D|-0--0000--2--2222--3--3333------|
A|-0--0000--2--2222--3--3333------|
D|-0--0000--2--2222--3--3333------|

Bridge: 3x
E|----------------------------------------------------|
B|----------------------------------------------------|
G|----------------------------------------------------|
D|--7---------------5--3----------2--3---------5-7----|
A|--7-777777777777--5--3-3333333--2--3-3333333-5-7----|
D|--7-777777777777--5--3-3333333--2--3-3333333-5-7----|
Bridge end 4th time
E|--------------------------------|
B|--------------------------------|
G|--------------------------------|
D|-5---3--2--3~-------------------|
A|-5---3--2--3~-------------------|
D|-5---3--2--3~-------------------|

"Your Eyes"part 4 x

then

Post-Bridge: 2x                once
E|---------------------------|----------------|
B|---------------------------|----------------|
G|---------------------------|----------------|
D|--000000-000000-888888888--|----------------|
A|--000000-000000-888888888--|--0-2-3-0-5-3---|
D|--000000-000000-888888888--|--0-2-3-0-5-3---| Repeat this another time


Wait until Guitar 1 is finsihed with intro then

Chorus once

then

Outro: 2x
E|----------------------------------5^-5^-5-5-5-5--6^-6^-6-6-5-6-5-0---|
B|----------5-6-5-6-5-6-5-6-5-6-5-6------------------------------------|
G|---------------------------------------------------------------------|
D|---------------------------------------------------------------------|
A|---------------------------------------------------------------------|
D|---------------------------------------------------------------------|

Outro Continued after 2nd time
E|------------5-6-5-0---------5-6-5-0---------5-6-5-0---------5-6-5-0--|
B|----5-6-5-6---------5-6-5-6---------5-6-5-6---------5-6-5-6----------|
G|---------------------------------------------------------------------|
D|---------------------------------------------------------------------|
A|---------------------------------------------------------------------|
D|---------------------------------------------------------------------|

Continued
E|---------------------------------------------------------------------|
B|---5-6-5-6-5-6-5-6-5-6-5-6-5-6-5-6-5-6-5-6-5-6-5-6-------------------|
G|---------------------------------------------------------------------|
D|---------------------------------------------------------------------|
A|---------------------------------------------------------------------|
D|---------------------------------------------------------------------|

End

Great song!!!!

PM/. = Palm Mute
X = mute note
            
Submit corrections

comments powered by Disqus
↑ Back to top | A Static Lullaby Tabs for The Shooting Star That Destroyed Us. Lyrics for acoustic guitar and electric guitar. 1 Tablatures and chords are parodies/interpretations of the original songs. You may use it for private study, scholarship, research or language learning purposes only