» » »

The Shooting Star That Destroyed Us Bass tabs (ver.1)

Artists:  A B C D E F G H I J K L M N O P Q R S T U V W X Y Z # 

The Shooting Star That Destroyed Us Bass tabs (ver.1)

A Static Lullaby
Rating:
0/5 (0 votes)

Hard to play? Try these video lessons and learn fast.
                A Static Lullaby
"The Shooting Star That Destroyed Us (All)"
...And Don't Forget To Breathe (Track 7)
Drop-D Tuning (DADG)

Note: Title on CD doesn't include the "all", and the song on the ep does, but they are relatively the same song.
This tab is based around the CD version. This song is played in drop d tuning, and the low notes cannot be reached
without de-tuning.

Intro:
G-----
D-----
A-----
D-3---

Verse: {0:10} (x3)
G----------------
D----------------
A---------0>>-1>>
D-3>>-0>>--------

Chorus {0:41} (x2)
G-------------------------------222000-------33322200
D-------------------------------------33-------------
A---------------------------0000---------1111--------
D-333333333333-000000000000--------------------------

Breakdown 1: {1:02}
G----------------------------|-------------------------------
D----------------------------|-------------------------------
A----------------------------|----------------55555555555555>
D-0~~0~00000000000000000000>>|-0-0-0-------------------------

{1:33} Chorus (x2)

Breakdown 2 "Now's the time": {1:54}
G-----------             G --------------
D-----------             D---------------
A-5---3---55 (x4) -then- A-5-----3-----55 (x8)
D---3---3---             D---023---320---

{2:24} (x4)
G------------
D------------
A------------
D-0~~2~~3~~~~

{2:39}
G-------------------------------
D-------------------------------
A-------------------------------
D-7777777777777-5-3333-2-3333-5-

{3:00} (x4)
G------------
D------------
A------------
D-0~~2~~3~~~~

{3:15} (x2)
G----------------------------------------------------
D----------------------------------------------------
A----------------------------------------------------
D-000000000000-88888888888-000000000000-888888-023053

{3:41} Chorus (x1)

{3:51} Verse (x3)

End On:
D-33~


Please rate it if you like it. Email me with any questions.
            
Hard to play? Try these video lessons and learn fast. | Correct




comments powered by Disqus
↑ Back to top | Tablatures and chords are parodies/interpretations of the original songs. You may use it for private study, scholarship, research or language learning purposes only