>
 >
A Song For A Broken Heart

A Song For A Broken Heart Guitar Tabs

A Static Lullaby - A Song For A Broken Heart chords, tabs, tablatures, lyrics

Guitar lessons | Add/correct | Request | Top 50 tabs Artists:  A B C D E F G H I J K L M N O P Q R S T U V W X Y Z 0-9

A Song For A Broken Heart Guitar Tabs – A Static Lullaby

CD, Sheet music, Poster

Do you like A Song For A Broken Heart? Share with your friends now
Bass TabsTabs


Dropped D tuning

b bend
p pull off
h hammer on
/ slide
~ let ring

Guitar 1

Intro (all palm muted)

e---------------------------------
b---------------------------------
g-7-7-7-9-9-9-6-6-6-7-7-7-9-9-7-7-
d-9-9-9-9-9-9-9-9-9-9-9-9-9-9-9-9-
a---------------------------------
d---------------------------------

Intro part two
first bit twice then second bit twice.
e---------------------------------------------------
b---------------------------------------------------
g-7p0-9p0-6p0-7p0-9p0-7p0--6p0-7p0-4p0-6p0-7p0-6p0--
d---------------------------------------------------
a---------------------------------------------------
d---------------------------------------------------

pre verse

e------------------------
b------------------------
g--------------------7/9~
d-0-2---0-2---0-2--------
a-0-2---0-2---0-2----5/7~
d-0-2---0-2---0-2--------

1st verse

e---------
b---------
g-12~-12~-
d-12~-12~-
a-10~-10~-
d---------

chorus part one

e---------------------------------
b---------------------------------
g-------5-5-5-------5-5-5---------   x4
d-2-2-2-5-5-5-2-2-2-5-5-5-5-5-4-4-
a-2-2-2-3-3-3-2-2-2-3-3-3-5-5-4-4-
d-2-2-2-------2-2-2-------5-5-4-4-

chorus part two

e-----------------------------------------------------------------
b-----------------------------------------------------------------
g-5-5-5-5-5-5-5-5-4-4-4-4-4-4-4-4---------------------------------
d-5-5-5-5-5-5-5-5-4-4-4-4-4-4-4-4-2-2-2-2-2-2-2-2-5-5-5-5-5-5-5-5- x 2
a-3-3-3-3-3-3-3-3-2-2-2-2-2-2-2-2-2-2-2-2-2-2-2-2-5-5-5-5-5-5-5-5-
d---------------------------------2-2-2-2-2-2-2-2-5-5-5-5-5-5-5-5-

post chorus

e-----------------------------------------------------------------
b-----------------------------------------------------------------
g-7-7-7-9-9-9-6-6-6-7-7-7-9-9-7-7-6-6-6-7-7-7-4-4-4-6-6-6-7-7-6-6-
d-----------------------------------------------------------------  x4
a-5-5-5-7-7-7-4-4-4-5-5-5-7-7-5-5-4-4-4-5-5-5-2-2-2-4-4-4-5-5-4-4-
d-----------------------------------------------------------------

2nd verse

e-------------------------------------------------
b-------------------------------------------------
g-7/9~--7-7-7-9-9-9-7-7-7-9-9-9-11h12-11h12p11---- x 4 (only play the chord 
d-------------------------------------------------       first time)
a-5/7~--------------------------------------------
d-------------------------------------------------

prechorus

e-------------
b-------------
g---------12~-
d-12~-14~-----
a-10~-10-~10~-
d-------------

play chorus part one

bridge

e----------------------
b----------------------
g----------------------
d-22-0-25-5-45-4-0--  x8
a-22-0-25-5-45-4-0--
d-22-0-25-5-45-4-0

then play chorus part 2

then chorus part one x4

chorus variation

e----------------------------------
b----------------------------------
g-------7-7-7-------7-7-7----------
d-2-2-2-------2-2-2--------5-5-4-4-
a-2-2-2-5-5-5-2-2-2-5-5-5--5-5-4-4-    x4
d-2-2-2-------2-2-2--------5-5-4-4-

ending

e-------------------------------------------------
b-------------------------------------------------
g------------------------------------------------- play three times and 
d-4-5-7-4-5-7-4-5-7-4-5-7-4-5-7-4-0-2-0-2-0-2-0-2- then just the last chords
a---------------------------------0-2-0-2-0-2-0-2-
d---------------------------------0-2-0-2-0-2-0-2-


guitar 2

intro

e---------------------------------
b---------------------------------
g---------------------------------
d-0-0-0-0-0-0-0-0-2-2-2-2-2-2-2-2-
a-0-0-0-0-0-0-0-0-2-2-2-2-2-2-2-2-
d-0-0-0-0-0-0-0-0-2-2-2-2-2-2-2-2-

pre verse same as guitar one but without the slide.

1st verse (all palm muted)

e-----------------------------------------------------------------
b-----------------------------------------------------------------
g-5-5-5-5-5-5-5-5-----------------5-5-5-5-5-5-5-5-----------------
d-5-5-5-5-5-5-5-5-5-5-5-5-0-0-0-0-5-5-5-5-5-5-5-5-5-5-5-5-7-7-7-7- x2
a-3-3-3-3-3-3-3-3-5-5-5-5-0-0-0-0-3-3-3-3-3-3-3-3-5-5-5-5-7-7-7-7-
d-----------------5-5-5-5-0-0-0-0-----------------5-5-5-5-7-7-7-7-


chorus part one

e-------------------------------------
b-------------------------------------
g-7-7-7-9-9-9-7-7-7-9-9-9-12-12-11-11- x4
d-------------------------------------
a-5-5-5-7-7-7-5-5-5-7-7-7-10-10-9--9-
d-------------------------------------

chorus part two

e-------------------------------------------------
b-------------------------------------------------
g-16-16-16-16-14-14-14-14-12-12-12-14-12-12-12-11-
d-------------------------------------------------   x2
a-14-14-14-14-12-12-12-12-10-10-10-12-10-10-10--9-
d-------------------------------------------------

post chorus

e-------------------------------------------------------------
b-------------------------------------------------------------
g-9-9-9-9-11-11-11-11-12-12-12-12-7-7-7-7-9-9-9-9-11-11-11-11-  x3
d-------------------------------------------------------------
a-7-7-7-7-9--9--9--9--10-10-10-10-5-5-5-5-7-7-7-7--9--9--9--9-
d-------------------------------------------------------------

last time play

e------------------------------------
b------------------------------------
g-7-7-7-7--7-7-7-7--7-7-7-9--7-7-7-7~
d------------------------------------
a-5-5-5-5--5-5-5-5--5-5-5-7--5-5-5-5~
d------------------------------------

2nd verse same as 1st

play chorus part one

play bridge (same as guitar one)

while guitar one plays chorus part two play

e-------------------
b---8----12---5---7- with these bends make both notes of equal 
g-b10---b14--b7--b5-    pitch if you see what i mean
d-------------------
a-------------------
d-------------------

ending

e------------------------------------------------------------------------------
b------------------------------------------------------------------------------
g-7/9~------------------12/11/12/11--7/9-7/9-7/9-7/97/6~-9-99-911-1112-12--
d-------0-2-0-2-0-2-0-2--------------------------------------------------------
a-5/7~--0-2-0-2-0-2-0-210/9-/-10/9--5/7-5/7-5/7-5/75/4~-7-77-79--9-10--10-
d-------0-2-0-2-0-2-0-2--------------------------------------------------------

then just play the same chords as guitar one





Comments


Popular A Static Lullaby tabs & chords
Nightmares Win 6-0 Bass Tabs
Scavenger Bass Tabs
The Shooting Star That Destroyed Us All 1 Bass Tabs
A Sip Of Wine Chased With Cyan 1 Tabs
Art Of Sharing Lovers Intro Tabs
Jesus Haircut Intro Tabs
Rattlesnake! Tabs
Rattlesnake! 1 Tabs
Smooth Modulator Tabs
Smooth Modulator Intro Tabs


Song lyrics



↑ Back to top | Tablatures and chords are parodies/interpretations of the original songs. You may use it for private study, scholarship, research or language learning purposes only
© 2014 AZChords.com Contact us | Privacy policy | DMCA | Add/correct tabs | Request tabs | Top 50 tabs