>
 >
A Song For A Broken Heart

A Song For A Broken Heart Bass Tabs

A Static Lullaby - A Song For A Broken Heart chords, tabs, tablatures, lyrics

Guitar lessons | Add/correct | Request | Top 50 tabs Artists:  A B C D E F G H I J K L M N O P Q R S T U V W X Y Z 0-9

A Song For A Broken Heart Bass Tabs – A Static Lullaby

CD, Sheet music, Poster

Do you like A Song For A Broken Heart? Share with your friends now
Bass TabsTabs
A Static Lullaby
"A Song For A Broken Heart"
...And Don't Forget To Breathe (Track 8)
Drop-D Tuning (DADG)

Intro: {0:11} Play 2x
G------------------------------------------------------
D------------------------------------------------------
A------------------------77-5-555555-------77-5-555555-
D-222222222222222-0000000-----------0000000------------

G-------------------------------------------------------
D-------------------------------------------------------
A------------------------77-5-555555-------77-5-5555----
D-222222222222222-0000000-----------0000000---------000-

G--------------------------------------------------------------
D----------2~~2420---------------------------------------------
A--------3~--------------77-5-555555-------77-5-5555-----------
D-222222~---------0000000-----------0000000---------22--22--22-

Verse: {0:45}
G---------------------------------------------------------------------
D---------------------------------------------------------------------
A-333333333333333-77777777-55555555-3333333333333330------------------ (2x)
D---------------------------------------------------22222222-44444444-

Chorus: {1:07} 
G-----------------
D-----------------
A---33-----330---- (x4)
D-22--55222---0044

Bridge: {1:17}
G---------------------------------------------------------------------
D-----5-------5--------5-------4--------------------------------------
A-3333-333-333-333-2222-222-222-222-----------------------------------
D----------------------------------222222222-2222222-5555555555555555-

G---------------------------------------------------------------------
D---------------------------------------------------------------------
A-33333333333333333-222222222222222-----------------------------------
D----------------------------------22222222222222222-5555555555555555-

G----------------------------------------------------------
D----------------------------------------------------------
A----------------------------------------------------------
D-2222-2222-22220000-0000-00002222-2222-22220000-0000-0000-

G-----------------------------------------------------------------
D-----------------------------------------------------------------
A-----------------------------------------------------------------
D-2222-2222-22220000-0000-00004-5555555555555555-7777777777777777-

{2:00} Verse (x2)

{2:26} Chorus (x4)

Interlude: {2:37}
G-----------------------------
D-----------------------------
A----------------------------- (x4)
D-2~2025~545420~2~2025~54540~-

2nd Bridge: {2:58}
G---------------------------------------------------------------------
D---------------------------------------------------------------------
A-33333333333333333-222222222222222-----------------------------------
D----------------------------------22222222222222222-5555555555555555-

G-------------------------------------------------------------------------
D-------------------------------------------------------------------------
A-33333333333333333-222222222222222---------------------------------------
D----------------------------------22222222222222222-55555555-55-55-55-44-

{3:19} Chorus (x8)

Ending: {3:40}
G---------------------------------------------------------------------------
D---------------------------------------------------------------------------
A---------------------------------------------------------------------------
D-5~~~~~02-02-02-02-5~~~~~02-02-02-02-5~~4~~~57~~02-02-02-02-02-02-02-02-02-


Please rate it if you like it. Email me with any questions.





Comments


Popular A Static Lullaby tabs & chords
The Shooting Star That Destroyed Us 2 Bass Tabs
The Shooting Star That Destroyed Us All 1 Bass Tabs
Withered Bass Tabs
A Sip Of Wine Chased With Cyan Tabs
A Sip Of Wine Chased With Cyanide 2 Tabs
Art Of Sharing Lovers Intro Tabs
Hang ‘Em High Tabs
Jesus Haircut Intro Tabs
Radio Flyer's Last Journey Tabs
Smooth Modulator Intro Tabs


Song lyrics



↑ Back to top | Tablatures and chords are parodies/interpretations of the original songs. You may use it for private study, scholarship, research or language learning purposes only
© 2014 AZChords.com Contact us | Privacy policy | DMCA | Add/correct tabs | Request tabs | Top 50 tabs