» » »

A Static Lullaby, Annunciate While You Masticate Tabs (ver.1)

Artists:  A B C D E F G H I J K L M N O P Q R S T U V W X Y Z # 

Annunciate While You Masticate Tabs (ver.1)

A Static Lullaby Tabs
 Rating:
4/5 (4 votes)
Annunciate While You Masticate lessons Tabs too difficult? Try these video lessons and learn fast
1
                Jutin L.

Drop D tuning

intro/verse
E|---------------------------------------
B|---------------------------------------
G|---------------------------------------
D|---8-7-8-7-----------------------------
A|---8-7-8-7-----------------------------
D|---8-7-8-7----------------------------- repeat til chours


E|----------------------------------------------------------------
B|----------------------------------------8-----------------------
G|---9-10-10-10-10-10-9-10-10-10-10-10-10---10-9-10---------------
D|----------------------------------------------------------------
A|----------------------------------------------------------------
D|---------------------------------------------------------------- 2x

chours
E|----------------------------------------------------------------
B|----------------------------------------------------------------
G|---------------------10-----------------------------------------
D|-3-3-3-5-5-5-5-5-5-0-x------------------------------------------
A|-3-3-3-5-5-5-5-5-5-0-8------------------------------------------
D|-3-3-3-5-5-5-5-5-5-0--------------------------------------------

repeat
intro/veres

repeat chours

E|----------------------------------------------------------------
B|----------------------------------------------------------------
G|--10-9-3--------------------------------------------------------
D|-0-x-x-x--------------------------------------------------------
A|-0-8-7-1--------------------------------------------------------
D|-0--------------------------------------------------------------

E|----------------------------------------------------------------
B|----------------------------------------------------------------
G|-2--------------------------------------------------------------
D|--3-2-3-2-0-5-3-------------------------------------------------
A|----------------------------------------------------------------
D|----------------------------------------------------------------

E|----------------------------------------------------------------
B|----------------------------------------------------------------
G|----------------------------------------------------------------
D|----------------------------------------------------------------
A|-0--------------------------------------------------------------
D|--3-2-3-2-0-5-3-------------------------------------------------

repaet chours

end on
E|----------------------------------------------------------------
B|----------------------------------------------------------------
G|-------10---------------------------------------------------------
D|--3-0--x-----------------------------------------------------------
A|--3-0--8-----------------------------------------------------------
D|--3-0--0-----------------------------------------------------------
            
Submit corrections

comments powered by Disqus
↑ Back to top | A Static Lullaby Tabs for Annunciate While You Masticate. Lyrics for acoustic guitar and electric guitar. 1 Tablatures and chords are parodies/interpretations of the original songs. You may use it for private study, scholarship, research or language learning purposes only