» » »

A Static Lullaby, Annunciate While You Masticate Bass tabs (ver.1)

Artists:  A B C D E F G H I J K L M N O P Q R S T U V W X Y Z # 

Annunciate While You Masticate Bass tabs (ver.1)

A Static Lullaby Tabs
 Rating:
4/5 (4 votes)
Annunciate While You Masticate lessons Tabs too difficult? Try these video lessons and learn fast
1
                Static Lullaby
"Annunciate While You Masticate"
...And Don't Forget To Breathe (Track 9)
Drop-D Tuning (DADG)

Intro: "Move into the grave that bears your name"
G--------------------
D--------------------
A-------------------- (x4)
D-888-000-7777777777-

Verse: {0:11} "My high is creeping..."
G--------------------
D--------------------
A-----------------8~- (x4)
D-888-000-77777777---

{0:22} Intro (x4) "So we'll see right through"

Chorus: {0:32} "All in the taste of salt on your neck"
G-------------------------------------------------------
D-------------------------------------------------------
A-------------------------------------------------5~~5~-
D-33-33-55-55-55-0~~~~~~0~~~~~~33-33-55-55-55-0~~~------

G-----------------------------------------------
D-----------------------------------------------
A-----------------------------------------------
D-33-33-55-55-55-0~~~~~~0~~~~~~33-33-55-55-5000-

{0:50} Intro (x4)

{1:00} Verse (x4)

{1:10} Intro (x4)

Slide Into 2nd Chorus: D-7/15\3

2nd Chorus {1:21}
G-------------------------------------------------------
D-------------------------------------------------------
A-------------------------------------------------5~~5~-
D-33-33-55-55-55-0~~~~~~0~~~~~~33-33-55-55-55-0~~~------

G---------------------------------------------
D---------------------------------------------
A---------------------------------------------
D-33-33-55-55-55-0~~~~~~0~~~~~~33-33-55-55-55-

Breakdown: {1:38} "We won't believe in anything"
G--------------------------      |----
D--------------------------      |----
A------8~7~---------------- (x4) |----
D-00000----7777777777777777      |-7\0

Crazy Part: {2:04}
G--------------------------------
D--------------------------------
A----------8\7/8-----------8\7/8-
D-0--------------0---------------

G----------
D----------
A---------- (x8)
D-32035320-

3rd Chorus: {2:19}
G-------------------------------------------------------
D-------------------------------------------------------
A-------------------------------------------------5~~5~-
D-33-33-55-55-55-0~~~~~~0~~~~~~33-33-55-55-55-0~~~------

G-------------------------------------------------------
D-------------------------------------------------------
A-------------------------------------------------------
D-33-33-55-55-55-0~~~~~~0~~~~~~33-33-55-55-55-0~~0~~0~~-


Please rate it if you like it. Email me with any questions.
            
Submit corrections

comments powered by Disqus
↑ Back to top | A Static Lullaby Bass for Annunciate While You Masticate. Lyrics for acoustic guitar and electric guitar. 1 Tablatures and chords are parodies/interpretations of the original songs. You may use it for private study, scholarship, research or language learning purposes only