» » »

Windy Tabs (ver.1)

Artists:  A B C D E F G H I J K L M N O P Q R S T U V W X Y Z # 

Windy Tabs (ver.1)

Association
Rating:
0/5 (0 votes)

Hard to play? Try these video lessons and learn fast.
                E-------------------------------------------------------------------------------------------------------------------------------
B------1-----------3-3---1----1---1-------------------------------1-----------3-3----1----1----1-------------------------1
G---2-----2---0------------2----2---2-0----0------------------2----2-0---------------2----2----2-0----0-------------2---
D----------------3--------------------------3----3---------------------------3-----------------------------3----3-----3------
A----------------------------------------------------3--3--3—3--------------------------------------------------------------
E-------------------------------------------------------------------------------------------------------------------------------


E-----3---------------------3-----------------------3----------------------3-3--3-------------------------1-3
B-3-----3----2--------1-3----3-----------------------3----1----------------------1--3-3--3—1----1-3----
G----------3-------2-------------3---0---------2--------3-----2--2-2-0--------------------------------------
D----------------3-----------------------2--3------------------------------------------------------------------
A----------------------------------------------------------------------------------------------------------------
E-----------------------------------------------------------------------------------------------------------------

Then just go back to the beginning and tht’s it!!!!!!    This song is very very easy! Please rate!!!
            
Hard to play? Try these video lessons and learn fast. | Correct




comments powered by Disqus
↑ Back to top | Tablatures and chords are parodies/interpretations of the original songs. You may use it for private study, scholarship, research or language learning purposes only