» » »

As I Lay Dying, Within Destruction Tabs (ver.2)

Artists:  A B C D E F G H I J K L M N O P Q R S T U V W X Y Z # 

Within Destruction Tabs (ver.2)

As I Lay Dying Tabs
 Rating:
4/5 (4 votes)
Within Destruction lessons Tabs too difficult? Try these video lessons and learn fast
                As I Lay Dying
Within Destruction
Drop C
Taken From The Guitar Pro.
Only One Guitar.
I\'ll Put The Other Up Sometime Later.

                   1.                2.                  3.               4.
D|-----------------|----------------|-------------------|----------------|----------------------------|
A|-----------------|----------------|-------------------|----------------|----------------------------|
F|-----------------|----------------|-------------------|----------------|----------------------------|
C|-----------------|----------------|-------------------|----------------|----------------------------|
G|--3-------6-5----|-4-5-----6-5-4-5|-4-5-----12-13-9-12|-4-5-----6-5-4-5|-12-13-12-9-12-8-9-8-6-9----|
C|--3-33333-6-5-333|-4-5-333-6-5-4-5|-4-5-333-----------|-4-5-333-6-5-4-5|----------------------------|

D|-----------------------------------------------------------------------------------------------------|
A|-----------------------------------------------------------------------------------------------------|
F|-----------------------------------------------------------------------------------------------------|
C|-----------------------------------------------------------------------------------------------------|
G|--------------------------------------------------------------9-8-6----------------------------------|
C|--555555555555555555555555-6868-5656-555555555555555555555555-9-8-6-555555555555555555555-6868-5656--|

D|--------------------------------------------------------------------------------------------|
A|--------------------------------------------------------------------------------------------|
F|--------------------------------------------------------------------------------------------|
C|--------------------------------------------------------------------------------------------|
G|-------------------5-6-5-9-8-6-------------444-333-444-333-444-------------444-333-444-6-3--|
C|--5555555555555555-5-6-5-9-8-6-3-333-3-333-333-333-333-333-333-3-333-3-333-333-333-333-3-3--|

D|-----------------------------------------------------------------------------------------------|
A|-----------------------------------------------------------------------------------------------|
F|-----------------------------------------------------------------------------------------------|
C|-----------------------------------------------------------------------------------------------|
G|--------------444-333-444-333-444-------------444-333-444-6-3----------------------------------|
C|--3-333-3-333-333-333-333-333-333-3-333-3-333-333-333-333-3-3-3-333-3-333-444-333-444-333-444--|

D|-----------------------------------------------------------------------------------------------|
A|-----------------------------------------------------------------------------------------------|
F|-----------------------------------------------------------------------------------------------|
C|-----------------------------------------------------------------------------------------------|
G|------------------------------------------------------------------------------------------6-3--|
C|--3-333-3-333-444-333-444-333-444-3-333-3-333-444-333-444-333-444-3-333-3-333-444-333-444-3-3--|

D|---------------------------------------------------------------------------------------------------------------------------|
A|---------------------------------------------------------------------------------------------------------------------------|
F|---------------------------------------------------------------------------------------------------------------------------|
C|---------------------------------------------------------------------------------------------------------------------------|
G|----------------------------------------------------------6-3---------------------------------------------------------6-3--|
C|--3-333-3-333-444-333-444-333-444-3-333-3-333-444-333-444-3-3-3-333-3-333-444-333-444-333-444-3-333-3-333-444-333-444-3-3--|

D|-----------------|13--13--13--13--|
A|-----------------|--13--13--13--13|
F|-----------------|----------------|X12
C|-----------------|----------------|
G|-------6-------3-|----------------|
C|--3333-3--3333-3-|----------------|


D|17--17--17--17--14--14--14--14--|
A|--18--18--18--18--15--15--15--15|
F|--------------------------------|
C|--------------------------------|
G|--------------------------------|
C|--------------------------------|

D|13--13--13--13--|
A|--13--13--13--13|
F|----------------|X8
C|----------------|
G|----------------|
C|----------------|

D|-17--17--17--17--10--10--10--10--|
A|---18--18--18--18--11--11--11--11|
F|---------------------------------|
C|---------------------------------|
G|---------------------------------|
C|---------------------------------|

D|8--8--8--8--|    |13--13--13--13--|
A|-10-10-10-10|    |--13--13--13--13|
F|------------|X4  |----------------|X9
C|------------|    |----------------|
G|------------|    |----------------|
C|------------|    |----------------|


D|-----|
A|-----|
F|-----|X32
C|-----|
G|-4444|
C|-4444|

D|---------------------------------|
A|---------------------------------|
F|---------------------------------|X4
C|---------------------------------|
G|---------------------------------|
C|-3-333-3-333-333-333-333-333-333-|

Till End
D|13--13--13--13--|
A|--13--13--13--13|
F|----------------|
C|----------------|
G|----------------|
C|----------------|
            
Submit corrections

comments powered by Disqus
↑ Back to top | As I Lay Dying Tabs for Within Destruction. Lyrics for acoustic guitar and electric guitar. Tablatures and chords are parodies/interpretations of the original songs. You may use it for private study, scholarship, research or language learning purposes only