>
 >
Upside Down Kingdom

Upside Down Kingdom Guitar Tabs

As I Lay Dying - Upside Down Kingdom chords, tabs, tablatures, lyrics

Guitar lessons | Add/correct | Request | Top 50 tabs Artists:  A B C D E F G H I J K L M N O P Q R S T U V W X Y Z 0-9

Upside Down Kingdom Guitar Tabs – As I Lay Dying

CD, Sheet music, Poster

Do you like Upside Down Kingdom? Share with your friends now
TabsTabs v2
Im not sure if this is %100 correct but you get the idea


Drop d (d,a,d,g,b,e)



intro

|--------------------------|
|--------------------------|
|----12--9------14--11-----|
|----x---x------x---x------|
|----10--7------12--9------|
|--------------------------|

|----------------------------------------------------------| x4
|----------------------------------------------------------|
|----------------------------------------------------------|
|---------------------9-9------7-7--------------7-7--------|
|10--7--7-9-10-10-7-7-----10-10----9--7-9-10-10-----9-9-10-|
|----------------------------------------------------------|


main riff (tr all of it)
|--------------------------------------------------------------|
|--------------------------------------------------------------| 
|--------------------------------------------------------------|
|--------------------------------------------------------------|
|--------------------------------------------------------------|
|-14-16-0-17-16-0-14-0-19-17-0-17-16-0-14-0-14-16-0-17-16-0-14-|
        .       .    .       .       .    .       .       .
|----------------------|
|----------------------|   
|----------------------|
|----------------------|
|----------------------|
|-10101010101097999222-|

|--------------------------| (play this the socond time around)
|--------------------------|
|--------------------------|
|--------------------------|
|------------------771010--|
|-10101010101097999--------|

"so i understand"
|---------------------------------|
|---------------------------------|
|---------------------------------|
|---------------------------------|
|(tr~~~~~~~~~~~~~~~)--------------|
|-14-16-0-17-16-0-14-222222222222-|
        .       .    ............

|-----------------------------------------|
|-----------------------------------------|
|-----------------------------------------|
|-----------------------------------------|
|(tr~~~~~~~~~~~~~~~~)---------------------|
|-14-16-0-17-16-0-14-10101010101097999222-|
        .       .    . . . . . .   ......

|--------------------------------------------| (2nd time around)
|--------------------------------------------|
|--------------------------------------------|
|--------------------------------------------|
|(tr~~~~~~~~~~~~~~~~)-----------------771010-|
|-14-16-0-17-16-0-14-10101010101097999-------|
        .      .     . . . . . .   ...

breakdown #1
|--------|--------------|
|--------|(keep playing-|
|--------|-this)--------|
|--------|--------------|
|--------|--------------|
|-000000-|-000000000000-|
  ......   ............ 


(played during the breakdown)
|---------------------------------------------------------------|
|-19-17-17-------19-17-17-/20-------19-17-17--------------------|
|--------16----------------------------------16---16b-rb---\11~-|
|---------------------------------------------------------------|
|---------------------------------------------------------------|
|---------------------------------------------------------------|

pre main riff?
|------------------------------------------------|
|------------------------------------------------|
|---9-9-9--------9-9-9--------9-9-9--------9-9-9-|
|---x-x-x--------x-x-x--------x-x-x--------x-x-x-|
|---7-7-7--------7-7-7--0h1/--7-7-7--------7-7-7-|
|----------0000----------------------0000--------|
           ....


(main riff)


chorus
|-------------------------------------------------------------------| x2
|-------------------------------------------------------------------|
|--9-11-/12---12-11-9-----9-11-12--11-9----9-11-12--11-9--12-11---9-|
|---------------------9-----------------9-----------------------9---|
|-------------------------------------------------------------------|
|-------------------------------------------------------------------|


breakdown #2
|-----------------------------------------|
|-----------------------------------------|
|-----------------------------------------|
|-----------------------------------------|
|-----------------------------------------|
|-7-7-77-12p7-77-7-7-77-12p7-77-101010777-|
      ..      ..     ..      .. . . . ... 

|-------------------------------------------------|
|-------------------------------------------------|
|-------------------------------------------------|
|-------------------------------------------------|
|-------------------------------------------------|
|-7-7-77-12p7-77-7-7-77-12p7-77-10-1010/16-1616\7-|
      ..      ..     ..      ..    . .     . .

|----------------------------------------------| (2nd time around)
|----------------------------------------------| 
|----------------------------------------------|    whole thing x4
|----------------------------------------------|  
|---------------10p9p7-9p7p5-7p5p4-5p4p2-4p2p0-|     
|-7-7-77-7-7-77--------------------------------|
      ..     ..

(chorus)

(Main riff)





Comments


Popular As I Lay Dying tabs & chords
Bury Us All Bass Tabs
Illusions Bass Tabs
Reinvention 2 Bass Tabs
Through Struggle Bass Tabs
Meaning In Tragedy 1 Tabs
This Is Who We Are 2 Tabs
Truth Of My Perception 1 Tabs
Unwound Tabs
Upside Down Kingdom Intro 2 Tabs
Vacancy Intro Tabs


Song lyrics



↑ Back to top | Tablatures and chords are parodies/interpretations of the original songs. You may use it for private study, scholarship, research or language learning purposes only
© 2014 AZChords.com Contact us | Privacy policy | DMCA | Add/correct tabs | Request tabs | Top 50 tabs