>
 >
Nothing Left

Nothing Left Guitar Tabs

As I Lay Dying - Nothing Left chords, tabs, tablatures, lyrics

Guitar lessons | Add/correct | Request | Top 50 tabs Artists:  A B C D E F G H I J K L M N O P Q R S T U V W X Y Z 0-9

Nothing Left Guitar Tabs – As I Lay Dying

CD, Sheet music, Poster

Do you like Nothing Left? Share with your friends now
Bass TabsBass Tabs v2TabsTabs v2Tabs v3Tabs v4






WOOT!! another song off the new album
i'm pretty sure most of it is correct (even the solo)
but i'm not so positive about the chorus (don't really like that part anyway)

so here ya go

 

 

Gtr I (C G C F A D) - 'Untitled'
Gtr II (C G C F A D) - 'Untitled'
Gtr III (C G C F A D) - 'Untitled'


Update 12-19-07:
aright i know most of you guys know my intro is wrong
so i figured out one that sounds as accurate as i can find
and matches what's on the video:

D------------------|-----------------|-----------------|-----------------
A------------------|-----------------|-----------------|-----------------
F------------------|-----------------|-----------------|-----------------
C------------------|-8---------------|-7---------------|-----------------
G----5---5---5---5-|---5---5---5---5-|---5---5---5---5-|-----0-1-0-------
C--0---0---0---0---|-----0---0---0---|-----0---0---0---|-0-3-------3-1-3-

D------------------|-----------------|-----------------|-----------------
A------------------|-----------------|-----------------|-----------------
F------------------|-5---------------|-----------------|-----------------
C------------------|-----------------|-8---------------|-----------------
G----5---5---5---5-|---5---5---5---5-|---5---5---5---5-|-----0-1-0-------
C--0---0---0---0---|-----0---0---0---|-----0---0---0---|-0-3-------3-1-3-

sorry i took so long to update
just put that in wherever it goes 
cuz i don't wanna have to change all the spots in this tab
i'm still sure the solo is very close along with the rest of the riffs

  Q=186
  Gtr I
  E E E E E E E E   E E E E E E E E   E E E E E E E E   E E E E E E E E
|-----------------|-----------------|-----------------|-----------------|
|-----------------|-----------------|-----------------|-----------------|
|-----------------|-----------------|-----------------|-----------------|
|---0---0---0---0-|-8-0---0---0---0-|-7-0---0---0---0-|-----------------|
|-----------------|-----------------|-----------------|-------5---------|
|-0---0---0---0---|-----0---0---0---|-----0---0---0---|-0-3-7---8-5-1-3-|
|
| Gtr II
| E E Q   Q   Q     Q   Q   Q   E E   E E Q   Q   Q     E E E E E E E E
|-----------------|-----------------|-----------------|-----------------|
|-----------------|-----------------|-----------------|-----------------|
|-----------------|-----------------|-----------------|-----------------|
|-----------------|-----------------|-----------------|-----------------|
|-0-0-------------|---------------0-|-0-0-------------|-------5---------|
|-0-0-------------|---------------0-|-0-0-------------|-0-3-7---8-5-1-3-|


  E E E E E E E E    E E E E E E E E   E E E E E E E E   E E E E E E E E
|-----------------|------------------|-----------------|-----------------|
|-----------------|------------------|-----------------|-----------------|
|-----------------|------------------|-----------------|-----------------|
|-7-0---0---0---0-|-10-0---0---0---0-|-8-0---0---0---0-|-----------------|
|-----------------|------------------|-----------------|-------5---------|
|-----0---0---0---|------0---0---0---|-----0---0---0---|-0-3-7---8-5-1-3-|
|
| E E Q   Q   E E    E E Q   Q   E E   E E Q   Q   Q     E E E E E E E E
|-----------------|------------------|-----------------|-----------------|
|-----------------|------------------|-----------------|-----------------|
|-----------------|------------------|-----------------|-----------------|
|-----------------|------------------|-----------------|-------------7---|
|-0-0-----------0-|--0-0-----------0-|-0-0-------------|-------5-------8-|
|-0-0-----------0-|--0-0-----------0-|-0-0-------------|-0-3-7---8-5-----|


   E E E E E E E E    E E E E E E E E    E E E E E E E E   E E E E E E E E
|------------------|------------------|------------------|-----------------|
|------------------|------------------|------------------|-----------------|
|------------------|------------------|------------------|-----------------|
|--7-0---0---0---0-|--8-0---0---0---0-|--7-0---0---0---0-|-----------------|
|------------------|------------------|------------------|-------5---------|
|------0---0---0---|------0---0---0---|------0---0---0---|-0-3-7---8-5-1-3-|
|
|  W                  W                  W                 E E E E E E E E
|------------------|------------------|------------------|-----------------|
|-10---------------|-11---------------|-10---------------|-----------------|
|------------------|------------------|------------------|-----------------|
|--7---------------|--8---------------|--7---------------|-----------------|
|------------------|------------------|------------------|-------5---------|
|------------------|------------------|------------------|-0-3-7---8-5-1-3-|


   E E E E E E E E    E E E E E E E E    E E E E E E E E   E E E E E E E E
|------------------|------------------|------------------|-----------------|
|------------------|------------------|------------------|-----------------|
|------------------|------------------|------------------|-----------------|
|--7-0---0---0---0-|-10-0---0---0---0-|--8-0---0---0---0-|-----------------|
|------------------|------------------|------------------|-------5---------|
|------0---0---0---|------0---0---0---|------0---0---0---|-0-3-7---8-5-1-3-|
|
|  W                  W                  W                 E E E E E E E E
|------------------|------------------|------------------|-----------------|
|-10---------------|-13---------------|-11---------------|-----------------|
|------------------|------------------|------------------|-----------------|
|--7---------------|-10---------------|--8---------------|-------------7---|
|------------------|------------------|------------------|-------5-------8-|
|------------------|------------------|------------------|-0-3-7---8-5-----|


  E E E E E E E E   E E E E E E E E   E E E E E E E E   E E E E E E E E
|-----------------|-----------------|-----------------|-----------------|
|-----------------|-----------------|-----------------|-----------------|
|-----------------|-----------------|-----------------|-----------------|
|-7-0---0---0---0-|-8-0---0---0---0-|-7-0---0---0---0-|-----------------|
|-----------------|-----------------|-----------------|-------5---------|
|-----0---0---0---|-----0---0---0---|-----0---0---0---|-0-3-7---8-5-1-3-|
|
| E E E E E E E E   E E E E E E E E   E E E E E E E E   E E E E E E E E
|-----------------|-----------------|-----------------|-----------------|
|-----------------|-----------------|-----------------|-----------------|
|-----------------|-----------------|-----------------|-----------------|
|-7-0---0---0---0-|-8-0---0---0---0-|-7-0---0---0---0-|-----------------|
|-----------------|-----------------|-----------------|-------5---------|
|-----0---0---0---|-----0---0---0---|-----0---0---0---|-0-3-7---8-5-1-3-|


  E E E E E E E E    E E E E E E E E   E E E E E E E E   E E E E E E  Q
|-----------------|------------------|-----------------|------------------|
|-----------------|------------------|-----------------|------------------|
|-----------------|------------------|-----------------|------------------|
|-7-0---0---0---0-|-10-0---0---0---0-|-8-0---0---0---0-|------------------|
|-----------------|------------------|-----------------|-------5-----[5]--|
|-----0---0---0---|------0---0---0---|-----0---0---0---|-0-3-7---8-5------|
|
| E E E E E E E E    E E E E E E E E   E E E E E E E E   E E E E E E  Q
|-----------------|------------------|-----------------|------------------|
|-----------------|------------------|-----------------|------------------|
|-----------------|------------------|-----------------|------------------|
|-7-0---0---0---0-|-10-0---0---0---0-|-8-0---0---0---0-|------------------|
|-----------------|------------------|-----------------|-------5-----[5]--|
|-----0---0---0---|------0---0---0---|-----0---0---0---|-0-3-7---8-5------|


  E E E E E E E E   E E E E E E E E   E E E E E E E E   E E E E E E E E
|-----------------|-----------------|-----------------|-----------------|
|-----------------|-----------------|-----------------|-----------------|
|-----------------|-----------------|-----------------|-----------------|
|-7-0---0---0---0-|-8-0---0---0---0-|-7-0---0---0---0-|-----------------|
|-----------------|-----------------|-----------------|-------5---------|
|-----0---0---0---|-----0---0---0---|-----0---0---0---|-0-3-7---8-5-1-3-|
|
| E E E E E E E E   E E E E E E E E   E E E E E E E E   E E E E E E E E
|-----------------|-----------------|-----------------|-----------------|
|-----------------|-----------------|-----------------|-----------------|
|-----------------|-----------------|-----------------|-----------------|
|-7-0---0---0---0-|-8-0---0---0---0-|-7-0---0---0---0-|-----------------|
|-----------------|-----------------|-----------------|-------5---------|
|-----0---0---0---|-----0---0---0---|-----0---0---0---|-0-3-7---8-5-1-3-|


  E E E E E E E E    E E E E E E E E   E E E E E E E E   E E E E E E E E
|-----------------|------------------|-----------------|-----------------|
|-----------------|------------------|-----------------|-----------------|
|-----------------|------------------|-----------------|-----------------|
|-7-0---0---0---0-|-10-0---0---0---0-|-8-0---0---0---0-|-----------------|
|-----------------|------------------|-----------------|-------5---------|
|-----0---0---0---|------0---0---0---|-----0---0---0---|-0-3-7---8-5-1-3-|
|
| E E E E E E E E    E E E E E E E E   E E E E E E E E   E E E E E E E E
|-----------------|------------------|-----------------|-----------------|
|-----------------|------------------|-----------------|-----------------|
|-----------------|------------------|-----------------|-----------------|
|-7-0---0---0---0-|-10-0---0---0---0-|-8-0---0---0---0-|-----------------|
|-----------------|------------------|-----------------|-------5---------|
|-----0---0---0---|------0---0---0---|-----0---0---0---|-0-3-7---8-5-1-3-|


  W
|------|
|------|
|------|
|------|
|-8----|
|-8----|
|
| W
|------|
|------|
|------|
|------|
|-8----|
|-8----|


  S S S S Q  E E E E   S S S S Q  E E E E
|--------------------|--------------------|
|--------------------|--------------------|
|--------------------|--------------------|
|--------------------|--------------------|
|--------------------|--------------------|
|-0-0-0-0-0----0---0-|-0-0-0-0-0----0---0-|
|
| S S S S Q  E E E E   S S S S Q  E E E E
|--------------------|--------------------|
|--------------------|--------------------|
|--------------------|--------------------|
|--------------------|--------------------|
|--------------------|--------------------|
|-0-0-0-0-0----0---0-|-0-0-0-0-0----0---0-|


  S S S S Q  E E E E   S S S S S S S S S S S S S S S S
|--------------------|----------------------------------|
|--------------------|----------------------------------|
|--------------------|----------------------------------|
|--------------------|----------------------------------|
|--------------------|----------------------------------|
|-0-0-0-0-0----0---0-|-7-0-0-0-5-0-0-0-7-0-0-0-3-0-0-0--|
|
| S S S S Q  E E E E   S S S S S S S S S S S S S S S S
|--------------------|----------------------------------|
|--------------------|----------------------------------|
|--------------------|----------------------------------|
|--------------------|----------------------------------|
|--------------------|----------------------------------|
|-0-0-0-0-0----0---0-|-7-0-0-0-5-0-0-0-7-0-0-0-3-0-0-0--|


  S S S S Q  E E E E   S S S S Q  E E E E
|--------------------|--------------------|
|--------------------|--------------------|
|--------------------|--------------------|
|--------------------|--------------------|
|--------------------|--------------------|
|-0-0-0-0-0----0---0-|-0-0-0-0-0----0---0-|
|
| S S S S Q  E E E E   S S S S Q  E E E E
|--------------------|--------------------|
|--------------------|--------------------|
|--------------------|--------------------|
|--------------------|--------------------|
|--------------------|--------------------|
|-0-0-0-0-0----0---0-|-0-0-0-0-0----0---0-|


  S S S S Q  E E E E   S S S S S S S S S S S S  Q
|--------------------|------------------------------------|
|--------------------|------------------------------------|
|--------------------|------------------------------------|
|--------------------|------------------------------------|
|--------------------|-------------------------12\--------|
|-0-0-0-0-0----0---0-|-7-0-0-0-5-0-0-0-7-0-0-0-12---------|
|
| S S S S Q  E E E E   S S S S S S S S S S S S  S  S S S
|--------------------|------------------------------------|
|--------------------|------------------------------------|
|--------------------|------------------------------------|
|--------------------|------------------------------------|
|--------------------|------------------------------------|
|-0-0-0-0-0----0---0-|-7-0-0-0-5-0-0-0-7-0-0-0--3--0-0-0--|


     S S S S  Q        E   E    E   E      S S S S  Q        E   E    E   E
||--------------------------------------|-------------------------------------|
||o-------------------------------------|-------------------------------------|
||--------------------------------------|-------------------------------------|
||--------------------------------------|-------------------------------------|
||o-------------------------------------|-------------------------------------|
||---0-0-0-0--0------------0--------0---|--0-0-0-0--0------------0--------0---|
|
|    S S S S  S S S S  S S S S  S S S S    S S S S  S S S S  S S S S  S S S S
||--------------------------------------|-------------------------------------|
||o-------------------------------------|-------------------------------------|
||--------------------------------------|-------------------------------------|
||--12-0-0-0-12-0-0-0-12-0-0-0-12-0-0-0-|-12-0-0-0-12-0-0-0-12-0-0-0-12-0-0-0-|
||o-------------------------------------|-------------------------------------|
||--------------------------------------|-------------------------------------|


   S S S S  Q        E   E    E   E      S S S S  S S S S S S S S S S S  S
|-------------------------------------|----------------------------------------||
|-------------------------------------|---------------------------------------o||
|-------------------------------------|----------------------------------------||
|-------------------------------------|----------------------------------------||
|-------------------------------------|---------------------------------------o||
|--0-0-0-0--0------------0--------0---|--7-0-0-0--5-0-0-0-7-0-0-0-3-0-0--0-----||
|
|  S S S S  S S S S  S S S S  S S S S    S S S S  S S S S S S S S S S S  S
|-------------------------------------|----------------------------------------||
|-------------------------------------|---------------------------------------o||
|-------------------------------------|----------------------------------------||
|-12-0-0-0-12-0-0-0-12-0-0-0-12-0-0-0-|-10-0-0-0-10-0-0-0-8-0-0-0-0-7-8-10-----||
|-------------------------------------|---------------------------------------o||
|-------------------------------------|----------------------------------------||


  E E E E E E E E   E E E E E E E E   E E E E E E E E   E E E E E E E E
|-----------------|-----------------|-----------------|-----------------|
|-----------------|-----------------|-----------------|-----------------|
|-----------------|-----------------|-----------------|-----------------|
|-7-0---0---0---0-|-8-0---0---0---0-|-7-0---0---0---0-|-----------------|
|-----------------|-----------------|-----------------|-------5---------|
|-----0---0---0---|-----0---0---0---|-----0---0---0---|-0-3-7---8-5-1-3-|
|
| E E E E E E E E   E E E E E E E E   E E E E E E E E   E E E E E E E E
|-----------------|-----------------|-----------------|-----------------|
|-----------------|-----------------|-----------------|-----------------|
|-----------------|-----------------|-----------------|-----------------|
|-7-0---0---0---0-|-8-0---0---0---0-|-7-0---0---0---0-|-----------------|
|-----------------|-----------------|-----------------|-------5---------|
|-----0---0---0---|-----0---0---0---|-----0---0---0---|-0-3-7---8-5-1-3-|


  E E E E E E E E    E E E E E E E E   E E E E E E E E   E E E E E E E E
|-----------------|------------------|-----------------|-----------------|
|-----------------|------------------|-----------------|-----------------|
|-----------------|------------------|-----------------|-----------------|
|-7-0---0---0---0-|-10-0---0---0---0-|-8-0---0---0---0-|-----------------|
|-----------------|------------------|-----------------|-------5---------|
|-----0---0---0---|------0---0---0---|-----0---0---0---|-0-3-7---8-5-1-3-|
|
| E E E E E E E E    E E E E E E E E   E E E E E E E E   E E E E E E E E
|-----------------|------------------|-----------------|-----------------|
|-----------------|------------------|-----------------|-----------------|
|-----------------|------------------|-----------------|-----------------|
|-7-0---0---0---0-|-10-0---0---0---0-|-8-0---0---0---0-|-------------7---|
|-----------------|------------------|-----------------|-------5-------8-|
|-----0---0---0---|------0---0---0---|-----0---0---0---|-0-3-7---8-5-----|


   H          +E  E  E E    H           +E  E  E  E
|------------------------|-----------------------11-|
|------------------------|-10----------(10)---------|
|-/7----------(7)-7-10-7-|------------------7-10----|
|------------------------|--------------------------|
|------------------------|--------------------------|
|------------------------|--------------------------|
|
|  S S S S Q   E  E  E E    S S S S Q    E  E  E  E
|------------------------|--------------------------|
|------------------------|--------------------------|
|------------------------|--------------------------|
|------------------------|--------------------------|
|------------------------|--------------------------|
|--0-0-0-0-0------0----0-|--0-0-0-0-0-------0-----0-|


   W                     +E     S S  E   E    H
|-10------------------|-(10)---10-8------8---------------------|
|---------------------|-------------11-------10----------------|
|---------------------|----------------------------------------|
|---------------------|----------------------------------------|
|---------------------|----------------------------------------|
|---------------------|----------------------------------------|
|
|  S S S S Q  E E E E     S  S  S S  S S S S  S S S S S S S S
|---------------------|----------------------------------------|
|---------------------|----------------------------------------|
|---------------------|----------------------------------------|
|---------------------|----------------------------------------|
|---------------------|----------------------------------------|
|--0-0-0-0-0----0---0-|---7--0--0-0--5-0-0-0--7-0-0-0-3-0-0-0--|


   H          +E  E  E E    H           +E  E  E  E
|------------------------|-----------------------10-|
|------------------------|-10----------(10)---------|
|-/7----------(7)-7-10-7-|------------------7-10----|
|------------------------|--------------------------|
|------------------------|--------------------------|
|------------------------|--------------------------|
|
|  S S S S Q   E  E  E E    S S S S Q    E  E  E  E
|------------------------|--------------------------|
|------------------------|--------------------------|
|------------------------|--------------------------|
|------------------------|--------------------------|
|------------------------|--------------------------|
|--0-0-0-0-0------0----0-|--0-0-0-0-0-------0-----0-|
|
| Gtr III
|  H          +E  E  E E    H           +E  E  E  E
|------------------------|-10----------(10)------17-|
|--6----------(6)-6-10-6-|------------------6-10----|
|------------------------|--------------------------|
|------------------------|--------------------------|
|------------------------|--------------------------|
|------------------------|--------------------------|


   H               +E    E  E  E    W
|-10b11===========(10)r--8-----8-|-10------------|
|--------------------------10----|---------------|
|--------------------------------|---------------|
|--------------------------------|---------------|
|--------------------------------|---------------|
|--------------------------------|---------------|
|
|  S     S S S Q    E    E  E  E    Q.   Q.   Q
|--------------------------------|---------------|
|--------------------------------|---------------|
|--------------------------------|---------------|
|--------------------------------|---------------|
|--------------------------------|--7----5----3--|
|--0-----0-0-0-0---------0-----0-|--7----5----3--|
|
|  H               +E    E  E  E    W
|-17b18===========(17)r-15----15-|-17------------|
|--------------------------18----|---------------|
|--------------------------------|---------------|
|--------------------------------|---------------|
|--------------------------------|---------------|
|--------------------------------|---------------|


     S S S S  Q        E   E    E   E      S S S S  Q        E   E    E   E
||--------------------------------------|-------------------------------------|
||o-------------------------------------|-------------------------------------|
||--------------------------------------|-------------------------------------|
||--------------------------------------|-------------------------------------|
||o-------------------------------------|-------------------------------------|
||---0-0-0-0--0------------0--------0---|--0-0-0-0--0------------0--------0---|
|
|    S S S S  S S S S  S S S S  S S S S    S S S S  S S S S  S S S S  S S S S
||--------------------------------------|-------------------------------------|
||o-------------------------------------|-------------------------------------|
||--------------------------------------|-------------------------------------|
||--12-0-0-0-12-0-0-0-12-0-0-0-12-0-0-0-|-12-0-0-0-12-0-0-0-12-0-0-0-12-0-0-0-|
||o-------------------------------------|-------------------------------------|
||--------------------------------------|-------------------------------------|


   S S S S  Q        E   E    E   E      S S S S  S S S S S S S S S S S  S
|-------------------------------------|----------------------------------------||
|-------------------------------------|---------------------------------------o||
|-------------------------------------|----------------------------------------||
|-------------------------------------|----------------------------------------||
|-------------------------------------|---------------------------------------o||
|--0-0-0-0--0------------0--------0---|--7-0-0-0--5-0-0-0-7-0-0-0-3-0-0--0-----||
|
|  S S S S  S S S S  S S S S  S S S S    S S S S  S S S S S S S S S S S  S
|-------------------------------------|----------------------------------------||
|-------------------------------------|---------------------------------------o||
|-------------------------------------|----------------------------------------||
|-12-0-0-0-12-0-0-0-12-0-0-0-12-0-0-0-|-10-0-0-0-10-0-0-0-8-0-0-0-0-7-8-10-----||
|-------------------------------------|---------------------------------------o||
|-------------------------------------|----------------------------------------||


  S S S S S S S S S S S S S S S S
|------------------------------------|
|------------------------------------|
|------------------------------------|
|-1-0-0-0-3-0-0-0-1-0-0-0-3-0-0-0----|
|------------------------------------|
|------------------------------------|
|
| S S S S S S S S S S S S S S S S
|------------------------------------|
|------------------------------------|
|------------------------------------|
|------------------------------------|
|------------------------------------|
|-1-0-0-0-3-0-0-0-1-0-0-0-3-0-0-0----|


   S S  S S  E  E  Q     Q       Q     S S  S S  E  E  Q
|-----------------------------|-----------------------------|
|-----------------------------|-----------------------------|
|-----------------------------|-----------------------------|
|-----------------------------|-----------------------------|
|-----------------------------|-----------------------------|
|--0-0--0-0--0--0-------------|--------0-0--0-0--0--0-------|
|
|  E    E    E  E  E  E  E  E    E  E  E    E    E  E  E  E
|-----------------------------|-----------------------------|
|-10---10---10-10-10-10-10-10-|-10-10-10---10---10-10-10-10-|
|--7----7----7--7--7--7--7--7-|--7--7--7----7----7--7--7--7-|
|--0----0----0--0--0--0--0--0-|--0--0--0----0----0--0--0--0-|
|-----------------------------|-----------------------------|
|-----------------------------|-----------------------------|


   W                         W
|-------------------------|-------------------------|
|-------------------------|-------------------------|
|-------------------------|-------------------------|
|-------------------------|-------------------------|
|-------------------------|-------------------------|
|-------------------------|-------------------------|
|
|  E  E  E  E  E  E  E  E    E  E  E  E  E  E  E  E
|-------------------------|-------------------------|
|-11-11-11-11-11-11-11-11-|-11-11-11-11-11-11-11-11-|
|--8--8--8--8--8--8--8--8-|--8--8--8--8--8--8--8--8-|
|--0--0--0--0--0--0--0--0-|--0--0--0--0--0--0--0--0-|
|-------------------------|-------------------------|
|-------------------------|-------------------------|


   S S  S S  E  E  Q     Q       Q     S S  S S  E  E  Q
|-----------------------------|-----------------------------|
|-----------------------------|-----------------------------|
|-----------------------------|-----------------------------|
|-----------------------------|-----------------------------|
|-----------------------------|-----------------------------|
|--0-0--0-0--0--0-------------|--------0-0--0-0--0--0-------|
|
|  E    E    E  E  E  E  E  E    E  E  E    E    E  E  E  E
|-----------------------------|-----------------------------|
|-10---10---10-10-10-10-10-10-|-10-10-10---10---10-10-10-10-|
|--7----7----7--7--7--7--7--7-|--7--7--7----7----7--7--7--7-|
|--0----0----0--0--0--0--0--0-|--0--0--0----0----0--0--0--0-|
|-----------------------------|-----------------------------|
|-----------------------------|-----------------------------|


   W                         H           E  E  Q
|-------------------------|--------------------------|
|-------------------------|--------------------------|
|-------------------------|--------------------------|
|-------------------------|--------------------------|
|-------------------------|-------------------[5]----|
|-------------------------|--------------5--8--------|
|
|  E  E  E  E  E  E  E  E    E  E  E  E  E  E  E   E
|-------------------------|--------------------------|
|-11-11-11-11-11-11-11-11-|-13-13-13-13-13-13-13--13-|
|--8--8--8--8--8--8--8--8-|-10-10-10-10-10-10-10--10-|
|--0--0--0--0--0--0--0--0-|--0--0--0--0--0--0--0---0-|
|-------------------------|--------------------------|
|-------------------------|--------------------------|


   S S  S S  E  E  Q     Q       Q     S S  S S  E  E  Q
|-----------------------------|-----------------------------|
|-----------------------------|-----------------------------|
|-----------------------------|-----------------------------|
|-----------------------------|-----------------------------|
|-----------------------------|-----------------------------|
|--0-0--0-0--0--0-------------|--------0-0--0-0--0--0-------|
|
|  E    E    E  E  E  E  E  E    E  E  E    E    E  E  E  E
|-----------------------------|-----------------------------|
|-10---10---10-10-10-10-10-10-|-10-10-10---10---10-10-10-10-|
|--7----7----7--7--7--7--7--7-|--7--7--7----7----7--7--7--7-|
|--0----0----0--0--0--0--0--0-|--0--0--0----0----0--0--0--0-|
|-----------------------------|-----------------------------|
|-----------------------------|-----------------------------|


   W                         W
|-------------------------|-------------------------|
|-------------------------|-------------------------|
|-------------------------|-------------------------|
|-------------------------|-------------------------|
|-------------------------|-------------------------|
|-------------------------|-------------------------|
|
|  E  E  E  E  E  E  E  E    E  E  E  E  E  E  E  E
|-------------------------|-------------------------|
|-11-11-11-11-11-11-11-11-|-11-11-11-11-11-11-11-11-|
|--8--8--8--8--8--8--8--8-|--8--8--8--8--8--8--8--8-|
|--0--0--0--0--0--0--0--0-|--0--0--0--0--0--0--0--0-|
|-------------------------|-------------------------|
|-------------------------|-------------------------|


   S S  S S  E  E  Q     Q       Q     S S  S S  E  E  Q
|-----------------------------|-----------------------------|
|-----------------------------|-----------------------------|
|-----------------------------|-----------------------------|
|-----------------------------|-----------------------------|
|-----------------------------|-----------------------------|
|--0-0--0-0--0--0-------------|--------0-0--0-0--0--0-------|
|
|  E    E    E  E  E  E  E  E    E  E  E    E    E  E  E  E
|-----------------------------|-----------------------------|
|-10---10---10-10-10-10-10-10-|-10-10-10---10---10-10-10-10-|
|--7----7----7--7--7--7--7--7-|--7--7--7----7----7--7--7--7-|
|--0----0----0--0--0--0--0--0-|--0--0--0----0----0--0--0--0-|
|-----------------------------|-----------------------------|
|-----------------------------|-----------------------------|


   W                         H           E  E  E  E
|-------------------------|-------------------------|
|-------------------------|-------------------------|
|-------------------------|-------------------------|
|-------------------------|-------------------------|
|-------------------------|-------------------------|
|-------------------------|--------------5--8--7--3-|
|
|  E  E  E  E  E  E  E  E    E  E  E  E  E  E  E  E
|-------------------------|-------------------------|
|-11-11-11-11-11-11-11-11-|-13-13-13-13-13-13-13-13-|
|--8--8--8--8--8--8--8--8-|-10-10-10-10-10-10-10-10-|
|--0--0--0--0--0--0--0--0-|--0--0--0--0--0--0--0--0-|
|-------------------------|-------------------------|
|-------------------------|-------------------------|


  H           Q.    Q.   Q    +W           +W
|----------|----------------|------------|-------------|
|----------|-11----10-------|------------|-------------|
|----------|-------------7--|-(7)--------|-(7)---------|
|----------|----------------|------------|-------------|
|----------|----------------|------------|-------------|
|----------|----------------|------------|-------------|
|
| W          +W               +W            H     H
|----------|----------------|------------|-------------|
|----------|----------------|------------|-------------|
|-7--------|-(7)------------|-(7)--------|-------------|
|----------|----------------|------------|-------------|
|-5--------|-(5)------------|-(5)--------|--5-----8----|
|-0--------|-(0)------------|-(0)--------|--5-----8----|


  +W            Q.    Q.   Q    +W           +W
|------------|----------------|------------|-------------|
|------------|-11----10-------|------------|-------------|
|-(7)--------|-------------7--|-(7)--------|-(7)---------|
|------------|----------------|------------|-------------|
|------------|----------------|------------|-------------|
|------------|----------------|------------|-------------|
|
|  W           +W               +W            H     H
|------------|----------------|------------|-------------|
|------------|----------------|------------|-------------|
|--7---------|-(7)------------|-(7)--------|-------------|
|------------|----------------|------------|-------------|
|--5---------|-(5)------------|-(5)--------|--5-----8----|
|--0---------|-(0)------------|-(0)--------|--5-----8----|


  +W            Q.       Q.      Q    +W           +W
|------------|----------------------|------------|-------------|
|------------|-11-------10----------|------------|-------------|
|-(7)--------|-------------------7--|-(7)--------|-(7)---------|
|------------|----------------------|------------|-------------|
|------------|----------------------|------------|-------------|
|------------|----------------------|------------|-------------|
|
|  W           +W                     +W            H     H
|------------|----------------------|------------|-------------|
|------------|----------------------|------------|-------------|
|--7---------|-(7)------------------|-(7)--------|-------------|
|------------|----------------------|------------|-------------|
|--5---------|-(5)------------------|-(5)--------|--5-----8----|
|--0---------|-(0)------------------|-(0)--------|--5-----8----|
|
|  <            <            <         <            <
|  TP           TP           TP        TP           TP    TP
|  W           +H           +H        +W           +H     H
|------------|----------------------|------------|-------------|
|------------|----------------------|------------|-------------|
|--2---------|-(2)b3========(2)r====|=(2)--------|-(2)----5----|
|------------|----------------------|------------|-------------|
|------------|----------------------|------------|-------------|
|------------|----------------------|------------|-------------|


  +W               Q.    Q.    Q     +W                  +W
|--------------|------------------|-------------------|--------------|
|--------------|--11----10--------|-------------------|--------------|
|-(7)----------|---------------7--|--(7)--------------|--(7)---------|
|--------------|------------------|-------------------|--------------|
|--------------|------------------|-------------------|--------------|
|--------------|------------------|-------------------|--------------|
|
|  W              +W                 +W                   H     H
|--------------|------------------|-------------------|--------------|
|--------------|------------------|-------------------|--------------|
|--7-----------|--(7)-------------|--(7)--------------|--------------|
|--------------|------------------|-------------------|--------------|
|--5-----------|--(5)-------------|--(5)--------------|---5-----8----|
|--0-----------|--(0)-------------|--(0)--------------|---5-----8----|
|
|  TP     TP       TP          TP     TP     TP           TP
| +H      H       +H.          Q     +H      H           +H
|--------------|------------------|-------------------|--------------|
|--------10----|-(10)---------13--|-(13)----13b15=====|=(13)---------|
|-(5)----------|------------------|-------------------|--------------|
|--------------|------------------|-------------------|--------------|
|--------------|------------------|-------------------|--------------|
|--------------|------------------|-------------------|--------------|


  E E S S S S E E S S S S   E  E S S S S E E S S S S
|-------------------------|--------------------------|
|-------------------------|--------------------------|
|-------------------------|--------------------------|
|-------------------------|--------------------------|
|-------------------------|--------------------------|
|-0-0-0-0-0-0-0-0-0-0-0-0-|-0--0-0-0-0-0-0-0-0-0-0-0-|
|
| W                         H.               Q
|-------------------------|--------------------------|
|-------------------------|--------------------------|
|-------------------------|------------------5-------|
|-7-----------------------|-8------------------------|
|-5-----------------------|-5----------------5-------|
|-------------------------|--------------------------|


  E E S S S S E E S S S S   S S S S S S S S S S S S S S S S
|-------------------------|------------------------------------|
|-------------------------|------------------------------------|
|-------------------------|------------------------------------|
|-------------------------|------------------------------------|
|-------------------------|------------------------------------|
|-0-0-0-0-0-0-0-0-0-0-0-0-|-7-0-0-0-8-0-0-0-7-0-0-0-8-0-0-0----|
|
| W                         S S S S S S S S S S S S S S S S
|-------------------------|------------------------------------|
|-------------------------|------------------------------------|
|-------------------------|------------------------------------|
|-7-----------------------|------------------------------------|
|-5-----------------------|------------------------------------|
|-------------------------|-7-0-0-0-8-0-0-0-7-0-0-0-8-0-0-0----|


  E E S S S S E E S S S S   E  E S S S S E E S S S S
|-------------------------|--------------------------|
|-------------------------|--------------------------|
|-------------------------|--------------------------|
|-------------------------|--------------------------|
|-------------------------|--------------------------|
|-0-0-0-0-0-0-0-0-0-0-0-0-|-0--0-0-0-0-0-0-0-0-0-0-0-|
|
| W                         H.               Q
|-------------------------|--------------------------|
|-------------------------|--------------------------|
|-------------------------|------------------5-------|
|-7-----------------------|-8------------------------|
|-5-----------------------|-5----------------5-------|
|-------------------------|--------------------------|


  E E S S S S E E S S S S   S S S S S S S S S S S S S S S S
|-------------------------|------------------------------------|
|-------------------------|------------------------------------|
|-------------------------|------------------------------------|
|-------------------------|-7-0-0-0-8-0-0-0-7-0-0-0-8-0-0-0----|
|-------------------------|------------------------------------|
|-0-0-0-0-0-0-0-0-0-0-0-0-|------------------------------------|
|
| W                         S S S S S S S S S S S S S S S S
|-------------------------|------------------------------------|
|-------------------------|------------------------------------|
|-------------------------|------------------------------------|
|-7-----------------------|-7-0-0-0-8-0-0-0-7-0-0-0-8-0-0-0----|
|-5-----------------------|------------------------------------|
|-------------------------|------------------------------------|


  E E S S S S E E S S S S   E  E S S S S E E S S S S
|-------------------------|--------------------------|
|-------------------------|--------------------------|
|-------------------------|--------------------------|
|-------------------------|--------------------------|
|-------------------------|--------------------------|
|-0-0-0-0-0-0-0-0-0-0-0-0-|-0--0-0-0-0-0-0-0-0-0-0-0-|
|
| W                         H.               Q
|-------------------------|--------------------------|
|-------------------------|--------------------------|
|-------------------------|------------------5-------|
|-7-----------------------|-8------------------------|
|-5-----------------------|-5----------------5-------|
|-------------------------|--------------------------|


  E E S S S S E E S S S S   S S S S S S S S S S S S S S S S
|-------------------------|------------------------------------|
|-------------------------|------------------------------------|
|-------------------------|------------------------------------|
|-------------------------|------------------------------------|
|-------------------------|------------------------------------|
|-0-0-0-0-0-0-0-0-0-0-0-0-|-7-0-0-0-8-0-0-0-7-0-0-0-8-0-0-0----|
|
| W                         S S S S S S S S S S S S S S S S
|-------------------------|------------------------------------|
|-------------------------|------------------------------------|
|-------------------------|------------------------------------|
|-7-----------------------|------------------------------------|
|-5-----------------------|------------------------------------|
|-------------------------|-7-0-0-0-8-0-0-0-7-0-0-0-8-0-0-0----|


  E E S S S S E E S S S S   E  E S S S S E E S S S S
|-------------------------|--------------------------|
|-------------------------|--------------------------|
|-------------------------|--------------------------|
|-------------------------|--------------------------|
|-------------------------|--------------------------|
|-0-0-0-0-0-0-0-0-0-0-0-0-|-0--0-0-0-0-0-0-0-0-0-0-0-|
|
| W                         H.               Q
|-------------------------|--------------------------|
|-------------------------|--------------------------|
|-------------------------|------------------5-------|
|-7-----------------------|-8------------------------|
|-5-----------------------|-5----------------5-------|
|-------------------------|--------------------------|


  E E S S S S E E S S S S    S S S S  S S S S  S S S S  S S S S
|-------------------------|----------------------------------------|
|-------------------------|----------------------------------------|
|-------------------------|----------------------------------------|
|-------------------------|-10-0-0-0-12-0-0-0-10-0-0-0-12-0-0-0----|
|-------------------------|----------------------------------------|
|-0-0-0-0-0-0-0-0-0-0-0-0-|----------------------------------------|
|
| W                          S S S S  S S S S  S S S S  S S S S
|-------------------------|----------------------------------------|
|-------------------------|----------------------------------------|
|-------------------------|----------------------------------------|
|-7-----------------------|--7-0-0-0--8-0-0-0--7-0-0-0--8-0-0-0----|
|-5-----------------------|----------------------------------------|
|-------------------------|----------------------------------------|


   S S S S  S S S S  S S S S  S S S S
|-------------------------------------|
|-------------------------------------|
|-------------------------------------|
|-12-0-0-0-10-0-0-0-12-0-0-0-13-0-0-0-|
|-------------------------------------|
|-------------------------------------|
|
|  S S S S  S S S S  S S S S  S S S S
|-------------------------------------|
|-------------------------------------|
|-------------------------------------|
|--8-0-0-0--7-0-0-0--8-0-0-0-10-0-0-0-|
|-------------------------------------|
|-------------------------------------|


   S S S S  S S S S  S S S S  S S S S    S S S S  S S S S  H
|-------------------------------------|-------------------------|
|-------------------------------------|-------------------------|
|-------------------------------------|-------------------14----|
|-15-0-0-0-14-0-0-0-15-0-0-0-17-0-0-0-|-20-0-0-0-19-0-0-0-------|
|-------------------------------------|-------------------------|
|-------------------------------------|-------------------------|
|
|  S S S S  S S S S  S S S S  S S S S    S S S S  S S S S  H
|-------------------------------------|-------------------------|
|-------------------------------------|-------------------------|
|-------------------------------------|-------------------------|
|-12-0-0-0-10-0-0-0-12-0-0-0-13-0-0-0-|-17-0-0-0-15-0-0-0-15----|
|-------------------------------------|-------------------------|
|-------------------------------------|-------------------------|


   W                      E   E  E  E  E  E  Q
|----------------------|-----------------------------|
|----------------------|-----------------------------|
|-17b19================|=17r-19-17----17-------------|
|----------------------|-----------19----17-17b19====|
|----------------------|-----------------------------|
|----------------------|-----------------------------|
|
|  E     E E E E E E E    E   E  E  E  E  E  E     E
|----------------------|-----------------------------|
|----------------------|-----------------------------|
|----------------------|-----------------------------|
|--7-----0---0---0---0-|--8---0-----0-----0--------0-|
|----------------------|-----------------------------|
|----------0---0---0---|---------0-----0-----0-------|


   +W                   E  E  E  E  E  E  E  E
|--------------------|-------------------------|
|--------------------|-------------------------|
|--------------------|----------------------15-|
|-(17)---------------|-------------17----------|
|--------------------|-17-18-17-15----15-15----|
|--------------------|-------------------------|
|
|   E  E E E E E E E    E  E  E  E  E  E  E  E
|--------------------|-------------------------|
|--------------------|-------------------------|
|--------------------|-------------------------|
|---7--0---0---0---0-|-------------------------|
|--------------------|-----------5-------------|
|--------0---0---0---|--0--3--7-----8--5--1--3-|


                          |--3--|
   +H.            E  E    E  E  E  E  E  E  E  E  E
|----------------15-17-|-17-18-17----17-18-17----17-|
|----------------------|----------15----------15----|
|-(15)-----------------|----------------------------|
|----------------------|----------------------------|
|----------------------|----------------------------|
|----------------------|----------------------------|
|
|   E  E E E E E  E  E    E  E  E  E  E  E  E     E
|----------------------|----------------------------|
|----------------------|----------------------------|
|----------------------|----------------------------|
|---7--0---0---0-----0-|-10--0-----0-----0--------0-|
|----------------------|----------------------------|
|--------0---0----0----|--------0-----0-----0-------|


           |--3--|
   +E   E  E  E  E  E  E  E  E    E  E  E  Q.       Q
|-(17)-17----------------------|-------------------------|
|---------15-16-15----15-------|-------------------------|
|------------------17----------|-------------------------|
|---------------------------17-|----17-------------------|
|------------------------18----|-18----18-17------[17]---|
|------------------------------|-------------------------|
|
|   E   E  E  E  E  E  E     E    E  E  E  E  E E   E  E
|------------------------------|-------------------------|
|------------------------------|-------------------------|
|------------------------------|-------------------------|
|---8---0-----0-----0--------0-|-------------------------|
|------------------------------|-----------5-------------|
|----------0-----0-----0-------|--0--3--7-----8-5---1--3-|


   |--3--|                                  |--3--|
   E  E  E  E  E  E  E  E  E    E  E  E  E  E  E  E  E  E
|----------------------------|-------17-18-18-17-15----15-|
|----------------------------|----------------------18----|
|-14-15-14----14-15-14-15-17-|-15-14----------------------|
|----------17----------------|----------------------------|
|----------------------------|----------------------------|
|----------------------------|----------------------------|
|
|  E  E  E  E  E  E  E  E       E  E  E  E  E  E  E  E
|----------------------------|----------------------------|
|----------------------------|----------------------------|
|----------------------------|----------------------------|
|--7--0-----0-----0-----0----|--8--0-----0-----0-----0----|
|----------------------------|----------------------------|
|--------0-----0-----0-------|--------0-----0-----0-------|


   |--3--|
   E  E  E  E  E  E  E  E  E    E  E  E  E  +H
|----------------------------|-------------------------|
|-18-16-15-16----15-16-15----|-------------------------|
|-------------17----------17-|-15-14-12-15-(15)--------|
|----------------------------|-------------------------|
|----------------------------|-------------------------|
|----------------------------|-------------------------|
|
|  E  E  E  E  E  E  E  E       E  E  E  E   E  E E E
|----------------------------|-------------------------|
|----------------------------|-------------------------|
|----------------------------|-------------------------|
|--7--0-----0-----0-----0----|-------------------------|
|----------------------------|-----------5-------------|
|--------0-----0-----0-------|--0--3--7------8--5-1-3--|


   S  S  S  S  S  S  S  S  S  S  S  S  S  S  S  S
|-------------------------------------------------|
|-------------------------------------------------|
|-12----------------------14----------------15----|
|----12-12-12-12-12-12-12----12-12-12-12-12----12-|
|-------------------------------------------------|
|-------------------------------------------------|
|
|  E     E     E     E     E     E     E     E
|-------------------------------------------------|
|-------------------------------------------------|
|-------------------------------------------------|
|--7-----0-----------0-----------0-----------0----|
|-------------------------------------------------|
|--------------0-----------0-----------0----------|


   S  S  S  S  S  S  S  S  S  S  S  S  S  S  S  S
|---------------------------------------------------|
|-------13----------13----16-15-13----15-13---------|
|----------------------------------15-------15-14---|
|-12-12----12-12-12----12---------------------------|
|---------------------------------------------------|
|---------------------------------------------------|
|
|  E     E     E     E        E     E     E     E
|---------------------------------------------------|
|---------------------------------------------------|
|---------------------------------------------------|
|-10-----0-----------0--------------0-----------0---|
|---------------------------------------------------|
|--------------0--------------0-----------0---------|


   S  S  S  S  S  S  S  S  S  S  S  S  S  S  S  S
|-------------------------------------------------|
|-------------------------------------------------|
|-12----------------------14----------------15----|
|----12-12-12-12-12-12-12----12-12-12-12-12----12-|
|-------------------------------------------------|
|-------------------------------------------------|
|
|  E     E     E     E     E     E     E     E
|-------------------------------------------------|
|-------------------------------------------------|
|-------------------------------------------------|
|--8-----0-----------0-----------0-----------0----|
|-------------------------------------------------|
|--------------0-----------0-----------0----------|


   S  S  S  S  S  S  S  S  S  S  S  S  S  S  S  S
|---------------------------------------------------|
|----------13----16-15-13----15-13-------13---------|
|-------------------------15-------15-14----15-14---|
|-12-12-12----12------------------------------------|
|---------------------------------------------------|
|---------------------------------------------------|
|
|  E     E     E     E     E     E     E     E
|---------------------------------------------------|
|---------------------------------------------------|
|---------------------------------------------------|
|---------------------------------------------------|
|--------------------5------------------------------|
|--0-----3-----7-----------8-----5-----1-----3------|


                                      >
   W                                 +W
|-20b22===========================|=(20)--------------------------|
|---------------------------------|-------------------------------|
|---------------------------------|-------------------------------|
|---------------------------------|-------------------------------|
|---------------------------------|-------------------------------|
|---------------------------------|-------------------------------|
|
|  S     S  S S  E  E  Q     Q        Q      S S  S S  E  E  Q
|---------------------------------|-------------------------------|
|---------------------------------|-------------------------------|
|---------------------------------|-------------------------------|
|---------------------------------|-------------------------------|
|---------------------------------|-------------------------------|
|--0-----0--0-0--0--0-------------|----------0-0--0-0--0--0-------|
|
|  E        E    E  E  E  E  E  E     E   E  E    E    E  E  E  E
|---------------------------------|-------------------------------|
|-10-------10---10-10-10-10-10-10-|--10--10-10---10---10-10-10-10-|
|--7--------7----7--7--7--7--7--7-|---7---7--7----7----7--7--7--7-|
|--0--------0----0--0--0--0--0--0-|---0---0--0----0----0--0--0--0-|
|---------------------------------|-------------------------------|
|---------------------------------|-------------------------------|


   W                         W
|-------------------------|-------------------------|
|-------------------------|-------------------------|
|-------------------------|-------------------------|
|-------------------------|-------------------------|
|-------------------------|-------------------------|
|-------------------------|-------------------------|
|
|  W                         W
|-------------------------|-------------------------|
|-------------------------|-------------------------|
|-------------------------|-------------------------|
|-------------------------|-------------------------|
|-------------------------|-------------------------|
|-------------------------|-------------------------|
|
|  E  E  E  E  E  E  E  E    E  E  E  E  E  E  E  E
|-------------------------|-------------------------|
|-11-11-11-11-11-11-11-11-|-11-11-11-11-11-11-11-11-|
|--8--8--8--8--8--8--8--8-|--8--8--8--8--8--8--8--8-|
|--0--0--0--0--0--0--0--0-|--0--0--0--0--0--0--0--0-|
|-------------------------|-------------------------|
|-------------------------|-------------------------|


   S S  S S  E  E  Q     Q       Q     S S  S S  E  E  Q
|-----------------------------|-----------------------------|
|-----------------------------|-----------------------------|
|-----------------------------|-----------------------------|
|-----------------------------|-----------------------------|
|-----------------------------|-----------------------------|
|--0-0--0-0--0--0-------------|--------0-0--0-0--0--0-------|
|
|  E    E    E  E  E  E  E  E    E  E  E    E    E  E  E  E
|-----------------------------|-----------------------------|
|-10---10---10-10-10-10-10-10-|-10-10-10---10---10-10-10-10-|
|--7----7----7--7--7--7--7--7-|--7--7--7----7----7--7--7--7-|
|--0----0----0--0--0--0--0--0-|--0--0--0----0----0--0--0--0-|
|-----------------------------|-----------------------------|
|-----------------------------|-----------------------------|


   W                         H           E  E  Q
|-------------------------|--------------------------|
|-------------------------|--------------------------|
|-------------------------|--------------------------|
|-------------------------|--------------------------|
|-------------------------|-------------------[5]----|
|-------------------------|--------------5--8--------|
|
|  E  E  E  E  E  E  E  E    E  E  E  E  E  E  E   E
|-------------------------|--------------------------|
|-11-11-11-11-11-11-11-11-|-13-13-13-13-13-13-13--13-|
|--8--8--8--8--8--8--8--8-|-10-10-10-10-10-10-10--10-|
|--0--0--0--0--0--0--0--0-|--0--0--0--0--0--0--0---0-|
|-------------------------|--------------------------|
|-------------------------|--------------------------|


   S S  S S  E  E  Q     Q       Q     S S  S S  E  E  Q
|-----------------------------|-----------------------------|
|-----------------------------|-----------------------------|
|-----------------------------|-----------------------------|
|-----------------------------|-----------------------------|
|-----------------------------|-----------------------------|
|--0-0--0-0--0--0-------------|--------0-0--0-0--0--0-------|
|
|  E    E    E  E  E  E  E  E    E  E  E    E    E  E  E  E
|-----------------------------|-----------------------------|
|-10---10---10-10-10-10-10-10-|-10-10-10---10---10-10-10-10-|
|--7----7----7--7--7--7--7--7-|--7--7--7----7----7--7--7--7-|
|--0----0----0--0--0--0--0--0-|--0--0--0----0----0--0--0--0-|
|-----------------------------|-----------------------------|
|-----------------------------|-----------------------------|


   W                         W
|-------------------------|-------------------------|
|-------------------------|-------------------------|
|-------------------------|-------------------------|
|-------------------------|-------------------------|
|-------------------------|-------------------------|
|-------------------------|-------------------------|
|
|  E  E  E  E  E  E  E  E    E  E  E  E  E  E  E  E
|-------------------------|-------------------------|
|-11-11-11-11-11-11-11-11-|-11-11-11-11-11-11-11-11-|
|--8--8--8--8--8--8--8--8-|--8--8--8--8--8--8--8--8-|
|--0--0--0--0--0--0--0--0-|--0--0--0--0--0--0--0--0-|
|-------------------------|-------------------------|
|-------------------------|-------------------------|


   S S  S S  E  E  Q     Q       Q     S S  S S  E  E  Q
|-----------------------------|-----------------------------|
|-----------------------------|-----------------------------|
|-----------------------------|-----------------------------|
|-----------------------------|-----------------------------|
|-----------------------------|-----------------------------|
|--0-0--0-0--0--0-------------|--------0-0--0-0--0--0-------|
|
|  E    E    E  E  E  E  E  E    E  E  E    E    E  E  E  E
|-----------------------------|-----------------------------|
|-10---10---10-10-10-10-10-10-|-10-10-10---10---10-10-10-10-|
|--7----7----7--7--7--7--7--7-|--7--7--7----7----7--7--7--7-|
|--0----0----0--0--0--0--0--0-|--0--0--0----0----0--0--0--0-|
|-----------------------------|-----------------------------|
|-----------------------------|-----------------------------|


   W                         H           E  E  E  E
|-------------------------|-------------------------|
|-------------------------|-------------------------|
|-------------------------|-------------------------|
|-------------------------|-------------------------|
|-------------------------|-------------------------|
|-------------------------|--------------5--8--7--3-|
|
|  E  E  E  E  E  E  E  E    E  E  E  E  E  E  E  E
|-------------------------|-------------------------|
|-11-11-11-11-11-11-11-11-|-13-13-13-13-13-13-13-13-|
|--8--8--8--8--8--8--8--8-|-10-10-10-10-10-10-10-10-|
|--0--0--0--0--0--0--0--0-|--0--0--0--0--0--0--0--0-|
|-------------------------|-------------------------|
|-------------------------|-------------------------|


  W
|------|
|------|
|------|
|-0----|
|-0----|
|-0----|
|
| W
|------|
|------|
|------|
|-0----|
|-0----|
|-0----|




--------------------------------------------------------------------------------


Duration Legend
---------------
W - whole; H - half; Q - quarter; E - 8th; S - 16th; T - 32nd; X - 64th; a - acciaccatura
+ - note tied to previous; . - note dotted; .. - note double dotted
Uncapitalized letters represent notes that are staccato (1/2 duration)
Irregular groupings are notated above the duration line
Duration letters will always appear directly above the note/fret number it represents the
duration for.  Duration letters with no fret number below them represent rests.  Multi-
bar rests are notated in the form Wxn, where n is the number of bars to rest for.  Low
melody durations appear below the staff

Tablature Legend
----------------
 h   - hammer-on
 p   - pull-off
 b   - bend
 pb  - pre-bend
 r   - bend release (if no number after the r, then release immediately)
 /\  - slide into or out of (from/to "nowhere")
 s   - legato slide
 S   - shift slide
 - natural harmonic
[n]  - artificial harmonic
n(n) - tapped harmonic
 ~   - vibrato
 tr  - trill
 T   - tap
 TP  - trem. picking
 PM  - palm muting
\n/  - tremolo bar dip; n = amount to dip
 \n  - tremolo bar down
 n/  - tremolo bar up
/n\  - tremolo bar inverted dip
 =   - hold bend; also acts as connecting device for hammers/pulls
 <> - volume swell (louder/softer)
 x   - on rhythm slash represents muted slash
 o   - on rhythm slash represents single note slash

Misc Legend
-----------
 |  - bar
||  - double bar
||o - repeat start
o|| - repeat end
*|  - double bar (ending)
 :  - bar (freetime)
 $  - Segno
 &  - Coda
Tempo markers -  = BPM(8/16=s8/s16), where s8 = swing 8ths, s16 = swing 16ths



--------------------------------------------------------------------------------





Comments


Popular As I Lay Dying tabs & chords
Nothing Left Bass Tabs
Through Struggle Bass Tabs
Blood Turned To Tears Tabs
Cauterize Tabs
Falling Upon Deaf Ears 1 Tabs
Falling Upon Deaf Ears 3 Tabs
Losing Sight 4 Tabs
My Only Home Tabs
Nothing Left 2 Tabs
Repeating Yesterday 5 Tabs


Song lyrics



↑ Back to top | Tablatures and chords are parodies/interpretations of the original songs. You may use it for private study, scholarship, research or language learning purposes only
© 2014 AZChords.com Contact us | Privacy policy | DMCA | Add/correct tabs | Request tabs | Top 50 tabs