>
 >
Forsaken 1

Forsaken 1 Guitar Tabs

As I Lay Dying - Forsaken 1 chords, tabs, tablatures, lyrics

Guitar lessons | Add/correct | Request | Top 50 tabs Artists:  A B C D E F G H I J K L M N O P Q R S T U V W X Y Z 0-9

Forsaken 1 Guitar Tabs – As I Lay Dying

CD, Sheet music, Poster

Do you like Forsaken 1? Share with your friends now
Bass TabsTabsTabs v2
-------------------------------------------------------------------------------
               As I Lay Dying - Forsaken
-------------------------------------------------------------------------------

Tuning: Drop D (D-A-D-G-B-E)
  (Believe it or not!! it is drop D (C is optional))


  INTRO

   Lead
e|------------------------------------------------------|
b|--13-13-13-13-13-13-13-13-13-13-13-13-15-15-15-15-----|
g|--15-15-15-15-15-15-15-15-15-15-15-15-15-15-15-15-----|
d|------------------------------------------------------|
a|------------------------------------------------------|
d|------------------------------------------------------|


e|----------------------------------------------------|
b|--15-15-15-15-15-15-15-15-15-15-15-15-15-15-15-15---|
g|--14-14-14-14-14-14-14-14-12-12-12-12-10-10-10-10---|
d|--12-12-12-12-12-12-12-12-12-12-12-12-12-12-12-12---|
a|----------------------------------------------------|
d|----------------------------------------------------|

  Now Rhythm comes in.

   Lead
e|------------------------------------------------------|
b|--13-13-13-13-13-13-13-13-13-13-13-13-15-15-15-15-----|
g|--15-15-15-15-15-15-15-15-15-15-15-15-15-15-15-15-----|
d|------------------------------------------------------|
a|------------------------------------------------------|
d|------------------------------------------------------|

  Rhythm
e|--------------------------------------|
b|--------------------------------------|
g|--------(rest)------------------------|
d|--------------------------------------|
a|--------------------------------------|
d|--------------------------------------|

  Lead
e|----------------------------------------------------|
b|--15-15-15-15-15-15-15-15-15-15-15-15-15-15-15-15---|
g|--14-14-14-14-14-14-14-14-12-12-12-12-10-10-10-10---|
d|--12-12-12-12-12-12-12-12-12-12-12-12-12-12-12-12---|
a|----------------------------------------------------|
d|----------------------------------------------------|

  Rythm
e|----------------------------------------------------|
b|----------------------------------------------------|
g|----------------------------------------------------|
d|----------------------------------------------------|
a|--------------------------/8~-----------------------|
d|----------------------------------------------------|

  The Below is played 4x.
   Lead
e|------------------------------------------------------|
b|--13-13-13-13-13-13-13-13-13-13-13-13-15-15-15-15-----|
g|--15-15-15-15-15-15-15-15-15-15-15-15-15-15-15-15-----|
d|------------------------------------------------------|
a|------------------------------------------------------|
d|------------------------------------------------------|

  Rhythm
e|------------------------------------------------------|
b|------------------------------------------------------|
g|------------------------------------------------------|
d|--8---------------------------------------------------|
a|--8---------------------------------------------------|
d|--8---------------------------------------------------|

  Lead
e|----------------------------------------------------|
b|--15-15-15-15-15-15-15-15-15-15-15-15-15-15-15-15---|
g|--14-14-14-14-14-14-14-14-12-12-12-12-10-10-10-10---|
d|--12-12-12-12-12-12-12-12-12-12-12-12-12-12-12-12---|
a|----------------------------------------------------|
d|----------------------------------------------------|

  Rhythm
e|----------------------------------------------------|
b|----------------------------------------------------|
g|----------------------------------------------------|
d|--0-----------------------3-------------------------|
a|--0-----------------------3-------------------------|
d|--0-----------------------3-------------------------|

 Ending bar of intro.( not to be played 4x)

  Lead
e|----------------------------|
b|--15-15-15-15-15-15-15-15---|
g|--14-14-14-14-14-14-14-14---|(8x)
d|--12-12-12-12-12-12-12-12---|
a|----------------------------|
d|----------------------------|
  Rhythm
e|----------------------------|
b|----------------------------|
g|----------------------------|(hold for 8 bars)
d|--0-------------------------|
a|--0-------------------------|
d|--0-------------------------|

  PreVerse
  Guitar 1 and 2
e|-------------------------------------------------------------------|
b|-------------------------------------------------------------------|
g|-------------------------------------------------------------------|(3x)
d|-------------------------------------------------------------------|
a|-------------------------------------------------------------------|
d|--0-0-0-0-7h8p7--0-0-0-0-7h8p7--0h5b6p0-0h8b9p0-7b8p0-0-5-0-3~-----|
      +   +          +   +                              +   +   

   VERSE 1

   Guitar 1(left)
e|------------------------------------------|
b|------------------------------------------|
g|------------------------------------------|
d|-0----------------------------------------|
a|-0-0-0-0-0-0-0----------------------------|
d|-0-0-0-0-0-0-0----------------------------|
     + + + + + +

   Guitar 2(right)
e|------------------------------------------|
b|------------------------------------------|
g|------------------------------------------|
d|-0----------------------------------------|
a|-0-0-0-0-0-0-0-------0h5-8p0---7----------|
d|-0-0-0-0-0-0-0---0h5---------7------------|
     + + + + + +

  Guitar 1(left)
e|------------------------------------------|
b|------------------------------------------|
g|------------------------------------------|
d|-0----------------------------------------|
a|-0-0-0-0-0-0-0-------0h5-8p0---7----------|
d|-0-0-0-0-0-0-0---0h5---------7------------|
     + + + + + +

  Guitar 2(right)
e|------------------------------------------|
b|------------------------------------------|
g|------------------------------------------|
d|-0----------------------------------------|
a|-0-0-0-0-0-0-0----------------------------|
d|-0-0-0-0-0-0-0----------------------------|
     + + + + + +

   Guitar 1(left)
e|------------------------------------------|
b|------------------------------------------|
g|------------------------------------------|
d|-0----------------------------------------|
a|-0-0-0-0-0-0-0----------------------------|
d|-0-0-0-0-0-0-0----------------------------|
     + + + + + +

   Guitar 2(right)
e|------------------------------------------|
b|------------------------------------------|
g|------------------------------------------|
d|-0----------------------------------------|
a|-0-0-0-0-0-0-0-------0h5-8p0---7----------|
d|-0-0-0-0-0-0-0---0h5---------7------------|
     + + + + + +
 
  Then,
  Guitar 1 and 2
e|------------------------------------------|
b|------------------------------------------|
g|------------------------------------------|
d|-0----------------------------------------|(9x)
a|-0-0-0-0-0-0-0-------0h5-8p0---7----------|
d|-0-0-0-0-0-0-0---0h5---------7------------|
     + + + + + +
  
  CHORUS

  Lead
e|-------------------------------------------------|
b|-------------------------------------------------|
g|-------------------------------------------------|
d|--8p3p0-8-8p3p0-8-8p3p0-8p3p0-8-8p3p0-8-8p3p0----|----|
a|-------------------------------------------------|    |
d|-------------------------------------------------|    |
    T     T T     T T     T     T T     T T             |
                                                        |
  Rhythm                                                |
e|----------------------------|                         |All this
b|----------------------------|                         |is played
g|----------------------------|                         |2x
d|--8--8--8--8--8--8--8--8----|                         |
a|--8--8--8--8--8--8--8--8----|                         | 
d|--8--8--8--8--8--8--8--8----|                         |
                                                        |
  Lead                                                  |
e|-------------------------------------------------|    |
b|-------------------------------------------------|    |
g|-------------------------------------------------|    |
d|--7p3p0-7-7p3p0-7-7p3p0-7p3p0-7-7p3p0-7-7p3p0----|    |
a|-------------------------------------------------|    |
d|-------------------------------------------------|    |
    T     T T     T T     T     T T     T T             |
                                                        |
  Rhythm                                                |
e|--------------------------------------|               |
b|--------------------------------------|---------------|
g|--------------------------------------|
d|--0-0-0-0-0-0-0-0--3-3-3-3-3-3-3-3----|
a|--0-0-0-0-0-0-0-0--3-3-3-3-3-3-3-3----|
d|--0-0-0-0-0-0-0-0--3-3-3-3-3-3-3-3----|

  Lead
e|-------------------------------------------------|
b|-------------------------------------------------|
g|-------------------------------------------------|
d|--8p3p0-8-8p3p0-8-8p3p0-8p3p0-8-8p3p0-8-8p3p0----|
a|-------------------------------------------------| 
d|-------------------------------------------------|
    T     T T     T T     T     T T     T T   

  Rhythm      
e|----------------------------|
b|----------------------------|
g|----------------------------|
d|--8--8--8--8--8--8--8--8----|
a|--8--8--8--8--8--8--8--8----|
d|--8--8--8--8--8--8--8--8----|

  Lead 
e|-------------------------------------------------|
b|-------------------------------------------------|
g|-------------------------------------------------| 
d|--7p3p0-7-7p3p0-7-7p3p0-7p3p0-7-7p3p0-7-7p3p0----|
a|-------------------------------------------------|
d|-------------------------------------------------|
    T     T T     T T     T     T T     T T  

 Rhythm      
e|----------------------------|
b|----------------------------|
g|----------------------------|
d|--5--5--5--5--5--5--5--5----|
a|--5--5--5--5--5--5--5--5----|
d|--5--5--5--5--5--5--5--5----|

 Cool Part  (2x)
 
  Lead
e|---------------------------------------------------------------|
b|---------------------------------------------------------------|
g|--------9h10p9----9-10-10-12-12-10-10-------9h10p9----9-9h10~--|
d|-0-0-0-0-------10-----0--0--0--0--0--0-7-10--------10----------|
a|---------------------------------------------------------------|
d|---------------------------------------------------------------|

  Rhythm
e|---------------------------------------------------------------|
b|---------------------------------------------------------------|
g|---------------------------------------------------------------|
d|---------------------------------------------------------------|
a|---------------------------------------------------------------|
d|-0-0-0-0-0----------0-0-0--0-0-0-0-0-0-0-----------------------|
   + + + + +          + + +  + + + + + + +

  Lead
e|---------------------------------------------------------------|
b|---------------------------------------------------------------|
g|--------9h10p9----9-10-10-12-12-10-10-------9h10p9----9-10-9~--|
d|-0-0-0-0-------10-----0--0--0--0--0--0-7-10--------10----------|
a|---------------------------------------------------------------|
d|---------------------------------------------------------------|

  Rhythm
e|---------------------------------------------------------------|
b|---------------------------------------------------------------|
g|---------------------------------------------------------------|
d|---------------------------------------------------------------|
a|---------------------------------------------------------------|
d|-0-0-0-0-0----------0-0-0--0-0-0-0-0-0-0----------------0-0-0--|
   + + + + +          + + +  + + + + + + +                + + +

  PreVerse 2

   Guitar 1 (left)
e|------------------------------|
b|------------------------------|
g|------------------------------|
d|------------------------------|
a|------------------------------|
d|--0-0-0-0-7h8p7--0-0-0-0------|
      +   +        + + + +    

  Guitar 2 (right)
e|------------------------------|
b|------------------------------|
g|------------------------------|
d|------------------------------|
a|------------------------------|
d|-----------------0-0-0-0------|
                   + + + +    




  VERSE 2

  Guitar 1 and 2
e|-------------------------------------------------------------------|
b|-------------------------------------------------------------------|
g|-------------------------------------------------------------------|(2x)
d|-------------------------------------------------------------------|
a|-------------------------------------------------------------------|
d|--0-0-0-0-7h8p7--0-0-0-0-7h8p7--0h5b6p0-0h8b9p0-7b8p0-0-5-0-3~-----|
      +   +          +   +                              +   +   
 
   
e|-------------------------------------------------------------------|
b|-------------------------------------------------------------------|
g|-------------------------------------------------------------------|(4x)
d|-------------------------------------------------------------------|
a|-------------------------------------------------------------------|
d|--0-0-0-0-7h8p7--0-0-0-0-7h8p7--0-0-0-0-0-0-0-0-7b8p0-0-5-0-3~-----|
      +   +          +   +        + + + + + + + +       +   +  

Chorus is then played again, followed by the Cool Part(played 2x this time)
   Then followed by intro(6x). 

   
   OUTRO

   Lead
e|------------------------------------------------------|
b|--13-13-13-13-13-13-13-13-13-13-13-13-15-15-15-15-----|
g|--15-15-15-15-15-15-15-15-15-15-15-15-15-15-15-15-----|
d|------------------------------------------------------|
a|------------------------------------------------------|
d|------------------------------------------------------|

   Rhythm
e|-------------------------------------------------|
b|-------------------------------------------------|
g|-------------------------------------------------|
d|--8p3p0-8-8p3p0-8-8p3p0-8p3p0-8-8p3p0-8-8p3p0----|
a|-------------------------------------------------| 
d|-------------------------------------------------|
    T     T T     T T     T     T T     T T   

  Lead
e|----------------------------------------------------|
b|--15-15-15-15-15-15-15-15-15-15-15-15-15-15-15-15---|
g|--14-14-14-14-14-14-14-14-12-12-12-12-10-10-10-10---|
d|--12-12-12-12-12-12-12-12-12-12-12-12-12-12-12-12---|
a|----------------------------------------------------|
d|----------------------------------------------------|

  Rhythm
e|-------------------------------------------------|
b|-------------------------------------------------|
g|-------------------------------------------------| 
d|--7p3p0-7-7p3p0-7-7p3p0-7p3p0-7-7p3p0-7-7p3p0----|
a|-------------------------------------------------|
d|-------------------------------------------------|
    T     T T     T T     T     T T     T T  

 The Above is played 5x.

   Lead
e|------------------------|
b|--15--------------------|
g|--14--------------------|
d|--12--------------------|
a|------------------------|
d|------------------------|
  Rhythm
e|------------------------|
b|------------------------|
g|------------------------|
d|--0---------------------|
a|--0---------------------|
d|--0---------------------|

   END. 

| T  tap
| /  slide up
| \  slide down
| h  hammer-on
| p  pull-off
| ~  vibrato
| +  harmonic
| x  Mute note
===============================================================================





Comments


Popular As I Lay Dying tabs & chords
94 Hours Bass Tabs
94 Hours 1 Bass Tabs
Collision 2 Bass Tabs
Meaning In Tragedy Bass Tabs
Beginning 2 Tabs
Falling Upon Deaf Ears Tabs
Forced To Die Tabs
Losing Sight Tabs
Morning Waits 1 Tabs
Nothing Left 1 Tabs


Song lyrics



↑ Back to top | Tablatures and chords are parodies/interpretations of the original songs. You may use it for private study, scholarship, research or language learning purposes only
© 2014 AZChords.com Contact us | Privacy policy | DMCA | Add/correct tabs | Request tabs | Top 50 tabs