» » »

As I Lay Dying, Falling Upon Deaf Ears Tabs (ver.1)

Artists:  A B C D E F G H I J K L M N O P Q R S T U V W X Y Z # 

Falling Upon Deaf Ears Tabs (ver.1)

As I Lay Dying Tabs
 Rating:
4/5 (4 votes)
Falling Upon Deaf Ears lessons Tabs too difficult? Try these video lessons and learn fast
1
                Tuning: Drop C
This sounds pretty close to me.
Note: There are three guitars in this song. Go to

Intro:
Gtr. 1
D|----------------------------------|
A|----------------------------------|
F|----------------------------------|
C|-0~--0~--0~-----------------------|
G|-0~--0~--0~-----------------------|
C|-0~--0~--0~-----------------------|

Gtr. 2
D|--------------------------------------------------------------------------|
A|--------------------------------------------------------------------------|
F|--------------------------------------------------------------------------|
C|--------------------------------------------------------------------------|
G|--8-7--*-*-----*-*-8-7-*-*---------8-7-*-*-----*-*-8p7-----10p8-----------|
C|-------0-0-8-7-0-0-----0-0-8-7-5-7-----0-0-8-7-0-0-----8p7------7h8-------|
PM = *

Verse Gtr. 1 & 2
D|--------------------------------------------------------------------------|
A|--------------------------------------------------------------------------|
F|--------------------------------------------------------------------------|
C|--------------------------------------------------------------------(x2)--|
G|--8-7--*-*-----*-*-8-7-*-*---------8-7-*-*-----*-*-8p7-----10p8-----------|
C|-------0-0-8-7-0-0-----0-0-8-7-5-7-----0-0-8-7-0-0-----8p7------7h8-------|

D|--------------------------------------------------------------------------|
A|--------------------------------------------------------------------------|
F|--------------------------------------------------------------------------|
C|--------------------------------------------------------------------(x4)--|
G|--8-7--*-*-----*-*-8-7-*-*--****-****--8-7-*-*-----*-*-8p7-----10p8-------|
C|-------0-0-8-7-0-0-----0-0--8888-7777------0-0-8-7-0-0-----8p7------7h8---|


After they play that twice, the third guitar comes in and plays:
Not 100% sure.
D|--------------------------------------------------------------|
A|--------------------------------------------------------------|
F|--10-9-----10-9---------10-9-----10-9-----12-10-9-10----------|
C|-------8-7------8-7-5-7------8-7------8-7---------------------|
G|--------------------------------------------------------------|
C|--------------------------------------------------------------|

Gtr. 1 & 2
D|---------------------------|
A|---------------------------|
F|-------------7-------------|
C|-*-*-*-*-*---x-------------|
G|-0-0-0-0-0---5-------------|
C|-0-0-0-0-0-----------------|
Gtr. 3
D|---------------------------|
A|-------------15------------|
F|-------------19------------|
C|-*-*-*-*-*---0-------------|
G|-0-0-0-0-0-----------------|
C|-0-0-0-0-0-----------------|

Gtr. 2                                Gtr.1
D|----------------------------------| D|-------------------------|
A|----------------------------------| A|-------------------------|
F|----------------------------------| F|-------------------------|
C|-8~--12/14\10~--10/12\-9----------| C|-8~--10~--7~-------------|
G|-8~---X--X--X----X--X--X----------| G|-8~--10~--7~-------------|
C|-8~--10/12\-8~---8/10\-7----------| C|-8~--10~--7~-------------|

Gtr. 1
D|-------------------------|
A|-------------------------|
F|-------------------------|
C|-0~--5~--8~--7~----------|
G|-0~--5~--8~--7~----------|
C|-0~--5~--8~--7~----------|
This part is played during the solo, but to a different tempo.

Gtr. 2                      Gtr. 3
D|------------------------- D|------------------------|
A|------------------------- A|------------------------|
F|------------------------- F|------------------------|
C|------------------------- C|------777755557777------|
G|-----888877778888-------- G|------------------------|
C|------------------------- C|------------------------|
Guitar 3 comes in after guitar 2 has played it's part twice.

Solo:
Gtr. 1
D|--------------------------------------------------------------------------|
A|--------------------------------------------------------------------------|
F|---9h10p9-------12-10-9-10--9h10p9----------------9h10p9-------12-10-9/14-|
C|----------12-10--------------------12/14-12-10-12--------12-10------------|
G|--------------------------------------------------------------------------|
C|--------------------------------------------------------------------------|

D|----------------------------------------------------------|
A|----------------------------------------------------------|
F|---12-10-12-10-9-9h10p9-------12-10-9-10------------------|
C|------------------------12-10------------12/14-12-10-12---|
G|----------------------------------------------------------|
C|----------------------------------------------------------|

D|-------------------------------------------------------------------|
A|----------------------------------------------------Pinch-Harmonic-|
F|----------------------------------------------------------------|
C|----------7h8h10--------7h8h10--------7h8h10-----------------------|
G|---7h8h10--------7h8h10--------7h8h10--------7h8h10----------------|
C|-------------------------------------------------------------------|

The ending is a little different than above. It's not hard to figure out.
            
Submit corrections

comments powered by Disqus
↑ Back to top | As I Lay Dying Tabs for Falling Upon Deaf Ears. Lyrics for acoustic guitar and electric guitar. 1 Tablatures and chords are parodies/interpretations of the original songs. You may use it for private study, scholarship, research or language learning purposes only