» » »

Blood Turned To Tears Tabs (ver.2)

Artists:  A B C D E F G H I J K L M N O P Q R S T U V W X Y Z # 

Blood Turned To Tears Tabs (ver.2)

As I Lay Dying
Rating:
5/5 (5 votes)

Hard to play? Try these video lessons and learn fast.
                Song by: As I Lay Dying                 Tab by @,..,@

"Blood Turned To Tears"

A Long March: The First Recordings

    I realized that the other tabs for this song were off in several places so i 
did my own thats correct. Have fun


Intro
D|--------------------|
A|--------------------|
F|--------------------|x4
C|-0-0-0-0-8/13-13/12-|
G|-0-0-0-0------------|
C|-0-0-0-0------------|

Part A

D|-------------------|
A|-------------------|
F|-------------------|
C|-0-1/4-0/3---------|x4
G|-0-1/4-0/3-1/6-6/5-|
C|-0-1/4-0/3---------|

Part B

D|--------------------------------------|
A|--------------------------------------|
F|--------------------------------------|
C|--------------------------------------|x2
G|---------------12-12-12-12-12-6-6-6-6-|
C|-0-0-0-0-8-8-8------------------------|

Part C

D|------------|        |------------|
A|------------|        |------------|
F|------------|        |------------|
C|-0-0-0-7----|x4      |-0-000-7----|x4
G|-0-0-0---6--|        |-0-000---6"-|
D|-0-0-0------|        |-0-000------|

Part D

D|--------------------------------|
A|--------------------------------|
F|--------------------------------|
C|--------------------------------|x3 then on 4th time do 16th notes
G|-0-0-0-0-0-0-0-0-10/9-0-9/6-0---| instead of 8ths for teh 0's
C|-0-0-0-0-0-0-0-0-8-/7-0-7/4-0-1-| 

Part E

D|--------------------------------|
A|--------------------------------|
F|--------------------------------|
C|--------------------------------|x6 but on last two play the 0's open not 
G|-0-6"-0-5"-00-00-11-11-11-11----| muted
C|-0----0----00-00----------------|

Part F

D|----------------|        
A|----------------|         
F|----------------|x4  then  
C|-0---8/13-13/12-|          
G|-0--------------|          
C|-0--------------|

D|----------------|
A|----------------|
F|----------------|x4  then
C|-0---8/13-12----|
G|-0--------------|
C|-0--------------|

D|----------------|
A|----------------|
F|----------------|x1 and songs over
C|-0---0---0------|
G|-0---0---0------|
C|-0---0---0------|
            
Hard to play? Try these video lessons and learn fast. | Correct




comments powered by Disqus
↑ Back to top | Tablatures and chords are parodies/interpretations of the original songs. You may use it for private study, scholarship, research or language learning purposes only