>
 >
An Ocean Between Us

An Ocean Between Us Guitar Tabs

As I Lay Dying - An Ocean Between Us chords, tabs, tablatures, lyrics

Guitar lessons | Add/correct | Request | Top 50 tabs Artists:  A B C D E F G H I J K L M N O P Q R S T U V W X Y Z 0-9

An Ocean Between Us Guitar Tabs – As I Lay Dying

CD, Sheet music, Poster

Do you like An Ocean Between Us? Share with your friends now
Bass TabsTabsTabs v2Tabs v3Tabs v4
-------------------------------------------------------------------------------
			     An Ocean Between Us  As I Lay Dying
-------------------------------------------------------------------------------

Tuning: Drop C - CGCFAD

D|---------------------------------------------------------------------------|
A|---------------------------------------------------------------------------|
F|---------------------------------------------------------------------------|
C|---------------------------------------------------------------------------|
G|---------------------------------------------------------------------------|
C|-0h7h12-0h7h12-0h12-0h7h12-0h12-0h8p50h7h12-0h7h12-0h12-0h7h12-0h12-0h8p5-|

D|---------------------------------------------------------------------------|
A|---------------------------------------------------------------------------|
F|---------------------------------------------------------------------------|
C|---------------------------------------------------------------------------|
G|---------------------------------------------------------12\0--------------|
C|-0h7h12-0h7h12-0h12-0h7h12-0h12-0h8p50h7h12-0h7h12-0h12-12\0--------------|

D|---------------------------------------------------------------------------|
A|---------------------------------------------------------------------------|
F|---------------------------------------------------------------------------|
C|---------------------------------------------------------------------------|
G|---------------------------------------------------------------------------|
C|-0h7h12-0h7h12-0h12-0h7h12-0h12-0h8p50h7h12-0h7h12-0h12-0h7h12-0h12-0h8p5-|

D|---------------------------------------------------------------------------|
A|---------------------------------------------------------------------------|
F|---------------------------------------------------------------------------|
C|---------------------------------------------------------------------------|
G|---------------------------------------------------------------------------|
C|-0h7h12-0h7h12-0h12-0h7h12-0h12-0h8p50h7h12-0h7h12-0h12-0h7h12-0h12-0h8p5-|

D|---------------------------------------------------------------------------|
A|---------------------------------------------------------------------------|
F|---------------------------------------------------------------------------|
C|---------------------------------------------------------------------------|
G|---------------------------------------------------------------------------|
C|-0h7h12-0h7h12-0h12-0h7h12-0h12-0h8p50h7h12-0h7h12-0h12-0h7h12-0h12-0h8p5-|

D|---------------------------------------------------------------------------|
A|---------------------------------------------------------------------------|
F|---------------------------------------------------------------------------|
C|-----------------------------------------------------------2h3p2p0h2p0-----|
G|----------------------------------------------5---7---8--------------------|
C|-0h7h12-0h7h12-0h12-0h7h12-0h12-0h8p55h7-5-8---5---5---5------------------|
			        [palm mute]  .     .   .   .

D|---------------------------------------------------------------------------|
A|---------------------------------------------------------------------------|
F|---------------------------------------------------------------------------|
C|-------------2h3p2p0h2h3--------------2h3p2p0h2p0--------------2h3p2p0-----|
G|-0000000000---------------0000000000---------------0000000000--------------|
C|-0000000000---------------0000000000---------------0000000000--------------|
   ..........               ..........               ..........

D|---------------------------------------------------------------------------|
A|---------------------------------------------------------------------------|
F|---------------------------------------------------------------------------|
C|---------------------2h3p2p0h2p0--------------2h3p2p0h2h3------------------|
G|---------5---7---8----------------0000000000---------------0000000000------|
C|-5h7-5-8---5---5---5--------------0000000000---------------0000000000------|
       .     .   .   .              ..........               ..........

D|---------------------------------------------------------------------------|
A|---------------------------------------------------------------------------|
F|---------------------------------------------------------------------------|
C|-2h3p2p0h2p0---------------2h3p2p0-----------------------2h3p2p0h2p0-------|
G|--------------0000000000--------------------5---7---8----------------------|
C|--------------0000000000------------5h7-5-8---5---5---5--------------------|
                ..........                .     .   .   .

D|---------------------------------------------------------------------------|
A|---------------------------------------------------------------------------|
F|---------------------------------------------------------------------------|
C|-------------2h3p2p0h2h3--------------2h3p2p0h2p0--------------2h3p2p0-----|
G|-0000000000---------------0000000000---------------0000000000--------------|
C|-0000000000---------------0000000000---------------0000000000--------------|
   ..........               ..........               ..........

D|---------------------------------------------------------------------------|
A|---------------------------------------------------------------------------|
F|---------------------------------------------------------------------------|
C|---------------------2h3p2p0h2p0--------------2h3p2p0h2h3------------------|
G|---------5---7---8----------------0000000000---------------0000000000------|
C|-5h7-5-8---5---5---5--------------0000000000---------------0000000000------|
       .     .   .   .              ..........               ..........

D|---------------------------------------------------------------------------|
A|---------------------------------------------------------------------------|
F|---------------------------------------------------------------------------|
C|-2h3p2p0h2p0---------------2h3p2p0-----------------------2h3p2p0-----------|
G|--------------0000000000--------------------5---7---8----------------------|
C|--------------0000000000------------5h7-5-8---5---5---5--------------------|
                ..........                .     .   .   .

D|---------------------------------------------------------------------------|
A|---------------------------------------------------------------------------|
F|--------------------------7777777777777777777777777777777777777777---------|
C|--------------------------xxxxxxxxxxxxxxxxxxxxxxxxxxxxxxxxxxxxxxxx---------|
G|-000000000000000000000000-5555555555555555555555555555555555555555---------|
C|-000000000000000000000000--------------------------------------------------|
   ........................


D|---------------------------------------------------------------------------|
A|-------------------------------------10------------------------------------|
F|-------------10p9----9----10-10p9----------10-10p9----9----10----12----10--|
C|-12-12-12-12------12---12---------12----12---------12---12----12----12-----|
G|---------------------------------------------------------------------------|
C|---------------------------------------------------------------------------|
   .  .  .  .       .    .          .     .          .    .     .     .

D|---------------------------------------------------------------------------|
A|---------------------------------------------------------------------------|
F|----9-----[repeat chorus riff 4 times]-------------------------------------|
C|-12------------------------------------------------------------------------|
G|---------------------------------------------------------------------------|
C|---------------------------------------------------------------------------|
   .

D|---------------------------------------------------------------------------|
A|---------------------------------------------------------------------------|
F|---------------------------------------------------------------------------|
C|---------------------------------------------------------------------------|
G|---------------------------------------------------------------------------|
C|-0h7h12-0h7h12-0h12-0h7h12-0h12-0h8p50h7h12-0h7h12-0h12-0h7h12-0h12-0h8p5-|

D|---------------------------------------------------------------------------|
A|---------------------------------------------------------------------------|
F|---------------------------------------------------------------------------|
C|---------------------------------------------------------------------------|
G|---------------------------------------------------------------------------|
C|-0h7h12-0h7h12-0h12-0h7h12-0h12-0h8p50h7h12-0h7h12-0h12-0h7h12-0h12-0h8p5-|

D|---------------------------------------------------------------------------|
A|---------------------------------------------------------------------------|
F|---------------------------------------------------------------------------|
C|---------------------------------------------------------------------------|
G|---------------------------------------------------------------------------|
C|-0h7h12-0h7h12-0h12-0h7h12-0h12-0h8p50h7h12-0h7h12-0h12-0h7h12-0h12-0h8p5-|

D|---------------------------------------------------------------------------|
A|---------------------------------------------------------------------------|
F|---------------------------------------------------------------------------|
C|-----------------------------------------------------------2h3p2p0h2p0-----|
G|----------------------------------------------5---7---8--------------------|
C|-0h7h12-0h7h12-0h12-0h7h12-0h12-0h8p55h7-5-8---5---5---5------------------|
			        [palm mute]  .     .   .   .

D|---------------------------------------------------------------------------|
A|---------------------------------------------------------------------------|
F|---------------------------------------------------------------------------|
C|-------------2h3p2p0h2h3--------------2h3p2p0h2p0--------------2h3p2p0-----|
G|-0000000000---------------0000000000---------------0000000000--------------|
C|-0000000000---------------0000000000---------------0000000000--------------|
   ..........               ..........               ..........

D|---------------------------------------------------------------------------|
A|---------------------------------------------------------------------------|
F|---------------------------------------------------------------------------|
C|---------------------2h3p2p0h2p0--------------2h3p2p0h2h3------------------|
G|---------5---7---8----------------0000000000---------------0000000000------|
C|-5h7-5-8---5---5---5--------------0000000000---------------0000000000------|
       .     .   .   .              ..........               ..........

D|---------------------------------------------------------------------------|
A|---------------------------------------------------------------------------|
F|---------------------------------------------------------------------------|
C|-2h3p2p0h2p0---------------2h3p2p0-----------------------------------------|
G|--------------0000000000--------------------5---7---8----------------------|
C|--------------0000000000------------5h7-5-8---5---5---5--------------------|
                ..........                .     .   .   .

D|---------------------------------------------------------------------------|
A|---------------------------------------------------------------------------|
F|--------------------------7777777777777777777777777777777777777777---------|
C|--------------------------xxxxxxxxxxxxxxxxxxxxxxxxxxxxxxxxxxxxxxxx---------|
G|-000000000000000000000000-5555555555555555555555555555555555555555---------|
C|-000000000000000000000000--------------------------------------------------|
   ........................

D|---------------------------------------------------------------------------|
A|-------------------------------------10------------------------------------|
F|-------------10p9----9----10-10p9----------10-10p9----9----10----12----10--|
C|-12-12-12-12------12---12---------12----12---------12---12----12----12-----|
G|---------------------------------------------------------------------------|
C|---------------------------------------------------------------------------|
   .  .  .  .       .    .          .     .          .    .     .     .

D|---------------------------------------------------------------------------|
A|---------------------------------------------------------------------------|
F|----9-----[repeat chorus riff 8times]--------------------------------------|
C|-12--------------------------------------0-----------------0---------------|
G|-----------------------------------------0-----------------0---------------|
C|-----------------------------------------0-----------------0------------3*-|
   .

D|---------------------------------------------------------------------------|
A|---------------------------------------------------------------------------|
F|---------------------------------------------------------------------------|
C|---------------------------------------------------------------------------|
G|-000000000-0-000000000000000-0-000000000000000-0-00000000-0000001111111111-|
C|-000000000-0-000000000000000-0-000000000000000-0-00000000-3333330055555555-|
   .........   ...............   ...............   ........

D|---------------------------------------------------------------------------|
A|---------------------------------------------------------------------------|
F|---------------------------------------------------------------------------|
C|---------------------------------------------------------------------------|
G|-000000000-0-000000000000000-0-000000000000000-0-00000000-0000001111111111-|
C|-000000000-0-000000000000000-0-000000000000000-0-00000000-3333330055555555-|
   .........   ...............   ...............   ........

D|---------------------------------------------------------------------------|
A|---------------------------------------------------------------------------|
F|---------------------------------------------------------------------------|
C|----------------[triplets]-------[triplets]--------------------------------|
G|-000000000-0-000000000000000-0-000000000000000-0-00000000-0000001111111111-|
C|-000000000-0-000000000000000-0-000000000000000-0-00000000-3333330055555555-|
   .........   ...............   ...............   ........

D|---------------------------------------------------------------------------|
A|---------------------------------------------------------------------------|
F|---------------------------------------------------------------------------|
C|-----------------[triplets]------------------------------------------------|
G|-000000000-0-000000000000000-0-00000-00000000000000001111111111111111------|
C|-000000000-0-000000000000000-0-00000-33333333333333335555555555555555------|
   .........   ...............   .....

D|---------------------------------------------------------------------------|
A|-------------------------------------10------------------------------------|
F|-------------10p9----9----10-10p9----------10-10p9----9----10----12----10--|
C|-12-12-12-12------12---12---------12----12---------12---12----12----12-----|
G|---------------------------------------------------------------------------|
C|---------------------------------------------------------------------------|
   .  .  .  .       .    .          .     .          .    .     .     .

D|---------------------------------------------------------------------------|
A|---------------------------------------------------------------------------|
F|----9-----[repeat chorus riff 8 times]-------------------------------------|
C|-12------------------------------------------------------------------------|
G|---------------------------------------------------------------------------|
C|---------------------------------------------------------------------------|
   .

D|---------------------------------------------------------------------------|
A|---------------------------------------------------------------------------|
F|---------------------------------------------------------------------------|
C|---------------------------------------------------------------------------|
G|---------------------------------------------------------------------------|
C|-0h7h12-0h7h12-0h12-0h7h12-0h12-0h8p50h7h12-0h7h12-0h12-0h7h12-0h12-0h8p5-|

D|---------------------------------------------------------------------------|
A|---------------------------------------------------------------------------|
F|---------------------------------------------------------------------------|
C|---------------------------------------------------------------------------|
G|---------------------------------------------------------------------00----|
C|-0h7h12-0h7h12-0h12-0h7h12-0h12-0h8p50h7h12-0h7h12-0h12-0h7h12-0h12-00----|
                                                                       ..

| .  palm mute
| /  slide up
| \  slide down
| h  hammer-on
| p  pull-off
| ~  vibrato
| +  harmonic
| x  Mute note
===============================================================================





Comments


Popular As I Lay Dying tabs & chords
Nothing Left 2 Bass Tabs
When This World Fades Bass Tabs
An Ocean Between Us 2 Tabs
Confined 2 Tabs
Elegy 2 Tabs
Meaning In Tragedy 2 Tabs
Reflection 1 Tabs
Separation Tabs
Surounded Intro Tabs
Truth Of My Perception 3 Tabs


Song lyrics



↑ Back to top | Tablatures and chords are parodies/interpretations of the original songs. You may use it for private study, scholarship, research or language learning purposes only
© 2014 AZChords.com Contact us | Privacy policy | DMCA | Add/correct tabs | Request tabs | Top 50 tabs