» » »

Ash, Shark Tabs (ver.1)

Artists:  A B C D E F G H I J K L M N O P Q R S T U V W X Y Z # 

Shark Tabs (ver.1)

Ash Tabs
Rating:
0/5 (0 votes)
Shark lessons Tabs too difficult? Try these video lessons and learn fast
                Standard tuning

This is a great song and it’s also on GT3. Enjoy!

Intro

[-------------------------------------------------------------------]	
[-------------------------------------------------------------------]
[-------------------------------------------------------------------]
[----5^-5^-5^-5^-5^-5^-5^-5^-4^-5~~~~~~-----------------------------]
[-------------------------------------------------------------------]
[-------------------------------------------------------------------]

Verse 

[-------------------------------------------------------------------]	
[-------------------------------------------------------------------]
[-------------------------------------------------------------------]
[--7-7-7--4--4---7-7-7--4--4---7-7-7--4--4--2-2-2-2-2---------------]
[--7-7-7--4--4---7-7-7--4--4---7-7-7--4--4--2-2-2-2-2---------------]
[--5-5-5--2--2---5-5-5--2--2---5-5-5--2--2--0-0-0-0-0---------------]

Chorus

Guitar 1

[-------------------------------------------------------------------]	
[-------------------------------------------------------------------]
[-------------------------------------------------------------------]
[--7-7-7--4--4---7-7-7--4--4---7-7-7--4--4--2-2-2-2-2---------------]
[--7-7-7--4--4---7-7-7--4--4---7-7-7--4--4--2-2-2-2-2---------------]
[--5-5-5--2--2---5-5-5--2--2---5-5-5--2--2--0-0-0-0-0---------------]

Guitar 2

[-------------------------------------------------------------------]	
[-------------------------------------------------------------------]
[------5h6-7^~~~~~~~~-----------------------------------------------]
[-------------------------------------------------------------------]
[-------------------------------------------------------------------]
[-------------------------------------------------------------------]
 But I’m blind, But I’m blind ……..

End of chorus

[-------------------------------------------------------------------]	
[-------------------------------------------------------------------]
[-------------------------------------------------------------------]
[--4-4-4-4-4-4-4-4-4-4---7-7----------------------------------------]
[--4-4-4-4-4-4-4-4-4-4---7-7----------------------------------------]
[--2-2-2-2-2-2-2-2-2-2---5-5----------------------------------------]
            
Submit corrections

comments powered by Disqus
↑ Back to top | Ash Tabs for Shark. Lyrics for acoustic guitar and electric guitar. Tablatures and chords are parodies/interpretations of the original songs. You may use it for private study, scholarship, research or language learning purposes only