» » »

Dhusor Somoy Tabs (ver.1)

Artists:  A B C D E F G H I J K L M N O P Q R S T U V W X Y Z # 

Dhusor Somoy Tabs (ver.1)

Artcell
Rating:
0/5 (0 votes)

Hard to play? Try these video lessons and learn fast.
                Hello evry1. checkthis out. this  is almost 95% perfect. plucking can never be 100% 

Dhusor somoy- Artcell

1st Plucking:
e-0---3------------3-----------3-----------3h20--3----3-|
B--0---0------------0------------0-------0--------0-----|
G---0---0-------0----0-------0-----0----------------0---|
D--------------2-----------0-----------0----------------|
A-------------3-----------0-----------------------------|
E

h= Hammer
2nd plucking:
grab the following chords  n play

     Em       Dm     Cm            Dm

e----------------------------------------------------------------------------------------|
B-----7-8-----5-7------3-5-5-3------5---5------------7-10-8-7-5--------------------------|
G---9--------7--------5-------5----5ā€”5---5-------7------------------7--------------------|
Dā€”9---------7--------5---------5-5-----5---5---7-----------------------------------------|
A----------------------------------------------------------------------------------------|
E----------------------------------------------------------------------------------------|

After this the song starts with the first plucking.

Then once again the first part
Em               C           D
NONA SOPNE GORA TOMAR SMRITY
Em                 C           D
SOTO RONGE RANGIYE MITTHE KONO SPONDON

Em                  C          D
ALOR NICHE JE ADHAR KHELA KORE
Em                C           D
SE ADHARE SORIR MESHALE
B              C                   D
AAJ AMI DHUSHOR KI RONGIN SOMOYE
Em               C               D
POTH HARAI TOMATE
Em          C             D
JIBONER KATATARE TUMI
Em             C              D
ONTOMILER OPURNOTAY
Em             C             D
BEWARISH GHURI
Em          C      D           Em
URE JAO ONABIL AKASHER SUNNOTAY
TUBU AMI
Then again the 2nd plucking.
Same chords as before.
KI KHUJI MANUSHER BISHADER CHOKHE
KOTHAY ALOR UTSHOBE
SOPNER PROTIBIMBO VANGE
EKA EKA AMI THAKI DARAYE
SMRITYR JHORO BATASHE DUJONER SORIR MESHAI
            
Hard to play? Try these video lessons and learn fast. | Correct




comments powered by Disqus
↑ Back to top | Tablatures and chords are parodies/interpretations of the original songs. You may use it for private study, scholarship, research or language learning purposes only