» » »

Artcell, Chile Kothar Sepai Tabs (ver.1)

Artists:  A B C D E F G H I J K L M N O P Q R S T U V W X Y Z # 

Chile Kothar Sepai Tabs (ver.1)

Artcell Tabs
Rating:
0/5 (0 votes)
Chile Kothar Sepai lessons Tabs too difficult? Try these video lessons and learn fast
                legends:
/ = silde
^ = pull
h = hammer

Intro:
play this part 2X...
e----------------------------------------------------------------------|
B----------------------------------------------------------------------|
G-------------------------------------2^0---5^0---4^0------------------|
D--2--222----5--555----------------------------------------------------|
A--0--000----3--333----5--555------------------------------------------|
E--------------------------3--333--------------------------------------|

then 3rd time...just slide some frets...
e----------------------------------------------------------------------|
B----------------------------------------------------------------------|
G-------------------------------------5^0---9^0---7^0------------------|
D--2--222----5/9--999--------------------------------------------------|
A--0--000----3/7--777---5--555-----------------------------------------|
E----------------------------3--333------------------------------------|

and fourth time..
e----------------------------------------------------------------------|
B----------------------------------------------------------------------|
G----------------------------------------------------------------------|
D--2--222----5/9--999--------------------------------------------------|
A--0--000----3/7--777---5--555555555-----------------------------------|
E----------------------------3--333333333------------------------------|


Then the quite fast part...Play it 2X...[NB- this is also riffing..not picking]

e----------------------------------------------------------------------|
B----------------------------------------------------------------------|
G----------------------------------------------------------------------|
D--------------------3----------2--------------------------------------|
A--320--320-----3---3---------32--532--0320----------------------------|
E---------------01--------3-------------------------31-----------------|

e----------------------------------------------------------------------|
B----------------------------------------------------------------------|
G----------------------------------------------------------------------|
D-------------------3----------2---------------------------------------|
A--320--320---------3---------32---532-------023-----------------------|
E----------------01-------3------------------013-----------------------|


Verse:
(ja dekho ja dekhooona.....bhange joto onobhuti chena ochenaaa
tomar onagoto shombhabonae jome ghunpokaar artonaad...)


Its quite easy, just chords..listen to the song..you'll get it
e----------------------------------------------------------------------------------|
B----------------------------------------------------------------------------------|
G---2---------2--------------------------------2-----------------------------------|
D--2--222---2--222---5--555--------------2--222------------------------------------|
A--0--000---0--000---3--333---5--555---0--000---3^0--3^0--3^0----------------------|
E------------------------------------3--333----------------------------------------|

e-------------------------------------------------------|
B-------------------------------------------------------|
G-------------------------------------------------------|
D-------------------------------------------------------|
A----2h3--2--3h5----------------------------------------|
E--1----------------------------------------------------|


Erporer Partta ami pari na (Tomar niil akash shunno chokhe....)

Chorus: ( Adhare noe, alote bhoy......)

just play it again and again and very fast also..
e-------------------------------------------------------|
B-------------------------------------------------------|
G--222---5h7----555---5h7-------5h7---------------------|
D--222-----------555----------555-----------------------|
A--000-----------333----------555-----------------------|
E--------------------------------333--------------------|


2nd Verse & chorus: Just as Same as first..

Well, thats all I know. If It helps you, Thats my pleasure.
keep on Rocking..........
SHABBA!!
            
Submit corrections

comments powered by Disqus
↑ Back to top | Artcell Tabs for Chile Kothar Sepai. Lyrics for acoustic guitar and electric guitar. Tablatures and chords are parodies/interpretations of the original songs. You may use it for private study, scholarship, research or language learning purposes only