» » »

Artcell, Amar Path Chola Tabs (ver.1)

Artists:  A B C D E F G H I J K L M N O P Q R S T U V W X Y Z # 

Amar Path Chola Tabs (ver.1)

Artcell Tabs
 Rating:
4/5 (7 votes)
Amar Path Chola lessons Tabs too difficult? Try these video lessons and learn fast
                Rising Star (B.....)



Amar pothe chola

This is my First song i have tabbed,  so plz don't Forget to rate it!
Just take it with sympathy if any mistake is found.
don't forget to send Comments or tell about mistakes if found-

Artcell is really the boss of the Bands in Bangladesh,
and it's One of the greatest cool songs of him ,
& of course , my favourite.
Tune down your guitar half a step to E flat

|3-----5-----3-----2-----3---2---|x3
|--3-----3-----3-----3-----3-----|
|0---0-0---0-0---0-0---0-0-------|
|--------------------------------|
|--------------------------------|
|--------------------------------|
then,
|3-----5-----7-----5-----3---5---|x1
|--3-----3-----5-----3-----3-----|
|0---0-0---0-4---4-2---2-0-------|
|--------------------------------|
|--------------------------------|
|--------------------------------|
Play these two patterns one by one four times before the song begins:

verse-1
G            C   Bm      C
Amaar path chola amaar pathey 
G           C       Bm           C
Jeno bela sheshey aakash kaar moohey 


Pre-chorus
Em        Bm         Am
Aamar shopno aamar shathe 
                G  C    D       G
Jeno shopne phire ashe shopno hoye 

G      C          Bm
Khuje pae jeeboner teer 
         C
Jibon ke kono shopno bhebe 


Chorus-
G
Aami kaar asha te 
C              D
Choli pathey pothey 
G
Jeno kaar maya te 
C              D
Badha poreche jeebon je 
G
Koto shukh kolpona
C             D
Koto mitthey prolobhon 
G
Koshther prothiti khon
C      D      G
Shonae taar aobhan 

Continue figure 1 & 2

verse -2
play like verse-1

Amaar aloe alokito 
Hote cheye adhare miliye 
G
Aami aaj nei tobu
C 
Koto shur othe beje 
Am        D
tomaar ei gaaner majhey 
Ei poth geche mishey 
Aamar bela sheshe 
Am       D
Shopno phire ashey 
G   C   D   Bm
Pre-thi-bir dur deshey 
 C            D         G
Jibon ke kono ek shopno bhebe


sorry, didn't try to figure it  for want of time.


before bridge play the chorus one time by raising one step:
then the sequence would be like this:
A----
D-----E
A----
D-----E
A----
D-----E
A----
D-----E----D

That's it!
Bridge:


|-------------------------------------------------------|
|-------------------------------------------------------|
|-----------------7-----------------------9-------------|
|-----9----9----9---9------10----10----10---10----------|
|--10---10---10---------12----12----12------------------|
|-------------------------------------------------------|



|-------------------------------------------------------|
|-------------------------------------------------------|
|--------------------11-------------------------12------|
|-----12----12----12----12-------14----14----14----14---|
|--14----14----14-------------15----15----15------------|
|-------------------------------------------------------|

|-------------------------------------------------------|
|-------------------------------------------------------|
|-----------------7-----------------------9-------------|
|-----9----9----9---9------10----10----10---10----------|
|--10---10---10---------12----12----12------------------|
|-------------------------------------------------------|


|-------------------------------------------------------|
|-------------------------------------------------------|
|--------9------7------5-----4-------2-----0------------|
|-----10------9------7-----5-------4-----2--------------|
|--12------10------9-----7-------5-----3------0-3-5-3---|
|-------------------------------------------------------|

end






* This is the author's own work and intended for study purpose only.
* The creator and owner of the song has NOT been contacted and taken permission of.


for comments, any one's welcome!
            
Submit corrections

comments powered by Disqus
↑ Back to top | Artcell Tabs for Amar Path Chola. Lyrics for acoustic guitar and electric guitar. Tablatures and chords are parodies/interpretations of the original songs. You may use it for private study, scholarship, research or language learning purposes only