» » »

Arsis, The Face Of My Innocence Tabs (ver.2)

Artists:  A B C D E F G H I J K L M N O P Q R S T U V W X Y Z # 

The Face Of My Innocence Tabs (ver.2)

Arsis Tabs
 Rating:
4/5 (9 votes)
The Face Of My Innocence lessons Tabs too difficult? Try these video lessons and learn fast
1
                
my friend found this in some forums somewhere so i thought i would spread the love.
Its not the whole song but its good enough for me.

.  - palm mute           /  - slide up to
\  - slide down to       ~  - vibrato
h  - hammer on           b  - Bend
p  - pull off            Suffixes for bend
t  - tap                 f  - full bend    h - half bend
ph - pinched harmonic    q  - quarter bend t - tap bend
*  - see comment         ^  - Hold bend    r release bend
x  - Stuccatto           ~  - vibrato bend
,  - slight palm mute    () - ghost note, sustained note
"  - tremolo note        <> - Trill

Tunning Drop C

Intro
|-------------------------------------------------------------------|
|-------------------------------------------------------------------|
|-------------------------------------------------------------------|
|---------3h7p3-----------------------------------------------------|Guitar
|-------5-------5---0-0-0-0-0---------------------------------------|I and II
|-0h5h7-----------7-0-0-0-0-0---------------------------------------|
                    . . . . .

Riff A
|-------------------------------------------------------------------|
|-------------------------------------------------------------------|
|-------------------------------------------------------------------|
|---------3h7p3-----------------------------------------------------|Guitar I
|-------5-------5---0-0-0-0-0---------------------------------------|
|-0h5h7-----------7-0-0-0-0-0---------------------------------------|
                    . . . . .

|-------------------------------------------------------------------|
|-------------------------------------------------------------------|
|-------------------------------------------------------------------|
|-8-8-8-8-7-7-7-7-5-5-5-5-------------------------------------------|Guitar II
|-------------------------0-0-0-0-0---------------------------------|
|-------------------------0-0-0-0-0---------------------------------|
                          . . . . .
Riff B
|--------------------------------------------------------------------|
|--------------------------------------------------------------------|
|------------------------------3h7p3---------------------------------|
|---------3h7p3--------------5-------5-------------------------------|Guitar I
|-------5-------5------0h5h7-----------7---0-0-0-0-0-----------------|
|-0h5h7-----------7------------------------0-0-0-0-0-----------------|
                                           . . . . .

|----------------------------------------------------------------------------------|
|----------------------------------------------------------------------------------|
|----------------------------------------------------------------------------------|
|-8-8-8-8-7-7-7-7-5-5-5-5-7-7-7-7-5-5-5-5-3-3-3-3-8-8-8-8-7-7-7-7-5-5-5-5----------|Gtr
|-------------------------------------------------------------------------0-0-0-0-0|II
|-------------------------------------------------------------------------0-0-0-0-0|
  . . . . . . . . . . . . . . . . . . . . . . . . . . . . . . . . . . . . . . . . .

Riff C
|-------------------------------------------------------------------|
|-------------------------------------------------------------------|
|-------------------------------------------------------------------|
|------------3-----------3------3-----------------------------------|Guitar
|------0--3--1--3--0--3--1-3--0-1-3-0-------------------------------|I and II
|-13\--0--3-----3--0--3----3--0---3-0-------------------------------|

Repeat Riffs A and B

Riff D
|-------------------------------------------------------------------|
|-------------------------------------------------------------------|
|-------------------------------------------------------------------|
|---------------------8\-7-7---------------------------7\-5-5-------|Guitar
|-0-1-------3h6p3-----6-\5-5-----------------3h6p3-----5-\3-3-------|I and II
|-0-1-3ph-0-------0-0--------0-1-4-0-2-5-0-0-------0-0--------------|
          .       . .        . . . . . . . .       . .

Repeat Riff C

Riff F
|--------------------------------------------------------------------|
|-----------------------------------------------------3--------------|
|--------------------------------------------------------------------|
|----------8-10-8--------7-8-7-------7-8-7--------1-5---5------------|Guitar I
|-0-0----5--------5----3-------3---0-------0----1--------------------|
|-0-0--5-------------3-----------0------------1----------------------|
  . .  . . . .  . .  . . . . . . . . . . . .  . . . .   .

|-------------------------------------------------------------------|
|-------------------------------------------------------------------|
|-12--15--14--10--12--/14--/12--------------------------------------|
|--------------------/----/-----------------------------------------|Guitar II
|-10--13--12--8---10/--12/--10--------------------------------------|
|-------------------------------------------------------------------|

Riff G

|---------------------------------------------------------------|
|-8-8-----------------------------------------------------------|
|-----7-7-10-10-7-7-8-8-5-5-7-7-3-3-5-5-3-3-2-2-3-3-0-0-2-2-3-3-|
|---------------------------------------------------------------|Guitar II
|---------------------------------------------------------------|
|---------------------------------------------------------------|
  . . . . . . . . . . . . . . . . . . . . . . . . . . . . . . .
            
Submit corrections

comments powered by Disqus
↑ Back to top | Arsis Tabs for The Face Of My Innocence. Lyrics for acoustic guitar and electric guitar. 1 Tablatures and chords are parodies/interpretations of the original songs. You may use it for private study, scholarship, research or language learning purposes only