>
 >
It Doesn't Seem To Matter

It Doesn't Seem To Matter Guitar Tabs

Army Of Anyone - It Doesn't Seem To Matter chords, tabs, tablatures, lyrics

Guitar lessons | Add/correct | Request | Top 50 tabs Artists:  A B C D E F G H I J K L M N O P Q R S T U V W X Y Z 0-9

It Doesn't Seem To Matter Guitar Tabs – Army Of Anyone

CD, Sheet music, Poster

Do you like It Doesn't Seem To Matter? Share with your friends now
Bass TabsTabs


h hammer on
p pull off
/ slide up
\ slide down
b bend
r release bend


Tuning: D tuning (D A D G B e)

-------|---------------------|------------------------------------------------|
-------|---------------------|------------------------------------------------|
-------|-----7-7--------7-7--|------------------------------------------------|
-------|-----7-7--------7-7--|------------------------------------------------|
-------|---------------------|------------------------------------------------|
-------|-7h8------7-7h8------|------------------------------------------------|
  Intro

-------|---------------------------------------------x-x------------x-x--|----|
-------|---------------------------------------------5-5------------5-5--|----|
-------|---------------------------------------------7-7------------7-7--|----|
-------|-----------------------------------------------------------------|----|
-------|-----------------------------------------------------------------|----|
-------|-10h12-12-12-0-0-0-0-3-3-3-3-5-5-5-5-8-8-8-8------8-7-8-8-8------|----|
  Verse   Bass Arranged for Guitar

-------|-3-----2-----3-----2------|-3-----3-----3-----2------|-----------|----|
-------|-3-----3-----3-----3------|-3-----3-----3-----3------|-------3---|----|
-------|-5-----5-----5-----5------|-5-----5-----5-----5------|-1-1-2-----|----|
-------|--------------------------|--------------------------|-0-0-------|----|
-------|--------------------------|--------------------------|-----------|----|
-------|--------------------------|--------------------------|-----------|----|
  PreChorus Pt. Arpeggios           "We'll lie..."            Out

------|--------------------------------------------------------------|-------|
------|--------------------------------------------------------------|-8/10--|
------|--------------------------------------------------------------|-x-----|
------|--------------------------------------------------------------|-7-----|
------|--------------------------------------------------------------|-------|
------|-10h12-12-12-12-10-7--0--5h7-9--10v--9-10-9-10v--9-10-9-10-9--|-------|
Chorus

-------|-------------------------|----------------------------|--|------------|
-------|-8-----------------------|----------------------------|--|------------|
-------|-x--7--6--------7--6--6--|-------7--6--------7--6--6--|--|------------|
-------|-7--------5h7-7----------|-5h7-7-------5h7-7----------|6x|------------|
-------|-------------------------|----------------------------|--|------------|
-------|-------------------------|----------------------------|--|------------|
  Interlude G1

-------|-------------------------------|--|-----------------------------------|
-------|-------------------------------|--|-----------------------------------|
-------|-------6---4---------6---6---4-|--|-----------------------------------|
-------|-5-5-5-------5-7---5-----------|2x|-----------------------------------|
-------|-------------------------------|--|-----------------------------------|
-------|-------------------------------|--|-----------------------------------|


-------|-0------|-------------------------------------------------------------|
-------|-2------|-------------------------------------------------------------|
-------|-2------|-------------------------------------------------------------|
-------|-2------|-------------------------------------------------------------|
-------|--------|-------------------------------------------------------------|
-------|--------|-------------------------------------------------------------|
  Interlude G2 Chord Strum

-----|------------------------------------------------------------------------|
-----|-19b20r19-19--------------------------------------------18b19r18-15vv---|
-----|-------------19--------------16b17r16-16--------------------------------|
-----|----------------19-17-16-17--------------19-17-16-17-19-----------------|
-----|------------------------------------------------------------------------|
-----|------------------------------------------------------------------------|
   Solo

------------------------------------------------------------------------------|
-13-13--12-12--10-10----------------------------------------------------------|
----------------------12--------14/16br--16brbr\14vv\--------14-12-11h12-14---|
------------------------------------------------------------------------------|
-------------------------12/14-------------------------15/17------------------|
------------------------------------------------------------------------------|


------------------------------------------------------------------------------|
---------------------------------------------------20-----20-19----19---------|
-12-11h12----------14-12-11h12-14-12-14/17-16vv--/-----21-------21-----21--19-|
------------------------------------------------------------------------------|
---------15vv-15/17-----------------------------------------------------------|
------------------------------------------------------------------------------|


------------------------------------------------------------------------------|
------------------------------------------------------------------------------|
-19br--17vvv--17-19-21-19-21-19-21p19-17vv--19-21-19-19-21p19-17vv--19-21-19--|
------------------------------------------------------------------------------|
------------------------------------------------------------------------------|
------------------------------------------------------------------------------|

-------------------------------------------19b20r19-17vvvvvvvvvv-------------|
-------------------------------18-19-20/21-----------------------17----------|
-21-19-21p19-17vv--17-19-20-21-----------------------------------16b17v--vv--|
-----------------------------------------------------------------------------|
-----------------------------------------------------------------------------|
-----------------------------------------------------------------------------|
                                                    Chorus


-------|-3-3---------x--|-----------------------------------------------------|
-------|-2---3-2---2-5--|-----------------------------------------------------|
-------|-x-----------3--|-----------------------------------------------------|
-------|----------------|-----------------------------------------------------|
-------|---------0------|-----------------------------------------------------|
-------|----------------|-----------------------------------------------------|
  Outro





Comments


Popular Army Of Anyone tabs & chords
Disappear Bass Tabs
It Doesn't Seem To Matter Bass Tabs
A Better Place Chords
Ain't Enough Tabs
Generation Tabs
Good Time To Loosen Tabs
Goodbye 1 Tabs
Nonstop Tabs
Used To Know Her Tabs
A Better Place Ukulele


Song lyrics



↑ Back to top | Tablatures and chords are parodies/interpretations of the original songs. You may use it for private study, scholarship, research or language learning purposes only
© 2014 AZChords.com Contact us | Privacy policy | DMCA | Add/correct tabs | Request tabs | Top 50 tabs