» » »

It Doesn't Seem To Matter Bass tabs (ver.1)

Artists:  A B C D E F G H I J K L M N O P Q R S T U V W X Y Z # 

It Doesn't Seem To Matter Bass tabs (ver.1)

Army Of Anyone
Rating:
0/5 (0 votes)

Hard to play? Try these video lessons and learn fast.
                
Tuning is drop-D (tune the E string one step down).

Opening (before pre-chorus).  Wait for the guitar to finish it's first few
strums for the first like, 10 seconds.

The lyrics are below each tab...should be accurate.

G-------------------------------------------------|
D-------------------------------------------------|
A-3-5-5-5-5-3-0----------------1--1-1-1--1--1-1-1-|
D---------------0-3-5-5-5-5-5---------------------|

"I saved a place for you..."

E-------------------------------------------------|
D-------------------------------------------------|
A-3-5-5-5-5-3-0-----------------------------------|
D---------------3-5-5-5-5-5-5--5--5-5-5--5--5-5-5-|

"I saved a place for ALLLLLLLLLLLLL of you"

G-------------------------------------------------|
D-------------------------------------------------|
A-3-5-5-5-5-3-0----------------1--1-1-1--1--1-1-1-|
D---------------0-3-5-5-5-5-5---------------------|

"I wanna pull you all in..."

E-------------------------------------------------|
D-------------------------------------------------|
A-3-5-5-5-5-3-0-----------------------------------|
D---------------3-5-5-5-5-5-5--5--5-5-5--5--5-5-5-|

"I want you guessin' where the truth begins..."

Pre Chorus

E----------------------------------------|
D-------------------10/12-12-12-12-10----|
A-------------10-12-------------------12-|
D-12-12-12-12----------------------------|

Repeat above 2 times while Richie is singing,
"Let's all fake happiness..."

Repeat it once more when he says,
"We'll put on a good..."

Now when he says "show..." do this...

E-------------------------------------------------------|
D-12----10-------------------------6/8--8-8-6-555555555-|
A----12----10-12-8-10-8--8-8-8-8-8----------------------|
D-------------------------------------------------------|
"We'll lie through our teeth.................I'll teach
you how to cheat"

E---------------------------------------------------------------|
D-------------------10/12-12-12-12-10-------12----10------------|
A-------------10-12-------------------12-------12----10-12-8-10-|
D-12-12-12-12----------------------------0-0--------------------|

"Aaaaaaaaaaaaaaaaaaaaaaaaaaaaaaaaaaaaaaaamen!..............Yeah!"

This goes right before the chorus as the drummer winds up the snare.

E---------------------------------|
D---------------------------------|
A-------------------------0-0-0-0-|
D-0-0-0-0-3-3-3-3-5-5-5-5---------|

Chorus
repeat 2 times

E------------------------------------------------------|
D------------------------------------------------------|
A-3-5-5-5-5-3-0------------0-3--2-3-2-3--2-3-2-3-2-3-2-|
D---------------0--0-0-0-5-----------------------------|

"It doesn't seem to matter!"

E------------------------------------------------------|
D------------------------------------------------------|
A-3-5-5-5-5-3-0-5--5-5-5---0-3--2-3-2-3--2-3-2-3-2-3-2-|
D------------------------5-----------------------------|

"When it's all aimed at you!"

the last part of the chorus before the drum fill is
A-string open.

Repeat all of those tabs above until bridge.

Bridge

E------------------------------------------------------|
D------------------------------------------------------|
A-0-----------10--------5---------10-12-10-7-5-0-3-0-0-|
D------------------------------------------------------|

"I want to let......you aaaalllll iiiinnnnnn..."

E---------------------------------------------------------|
D---------------------------------------------------------|
A-0-----------10--------5---------------------------------|
D---------------------------------15-15-15-17-17-17-17-17-|

"I want to live where the truth...caaaann win...."

This next part is played while Richie screams, "Yeeeeaaaahhhhh!"
E-------------------------15----|
D-------------15-15-17-17----17-|
A-15-15-17-17-------------------|
D-------------------------------|
I'm not sure if this key run before the solo is right,
but oh well it sounds good.

You just play the chorus line during the solo until near
the end then you just play the above key run before Rich
starts singing the chorus again.

Then you just repeat the chorus until the end of the song.

This is my first tab, so if it's not perfect, and I don't assume
it is, that's why.  But I haven't seen anyone else tab this yet
so do us all a favor and stop complaining...if you are that is.
Haha.

-TitleOfRecord86
            
Hard to play? Try these video lessons and learn fast. | Correct




comments powered by Disqus
↑ Back to top | Tablatures and chords are parodies/interpretations of the original songs. You may use it for private study, scholarship, research or language learning purposes only