» » »

Aretha Franklin, Think Bass tabs (ver.1)

Artists:  A B C D E F G H I J K L M N O P Q R S T U V W X Y Z # 

Think Bass tabs (ver.1)

Aretha Franklin Tabs
 Rating:
3.7/5 (6 votes)
Think lessons Tabs too difficult? Try these video lessons and learn fast
1
                Intro
G|-------------------|
D|----------6--------|
A|-----------8-66----|
E|-6-6-6-6-------9---|


Verse 1: till Chorus
G|---------------------------------------|
D|---------------------------------------|
A|--8---6-8-6-8-6------8---3-4-6-8-6-----|
E|-6-6-6-------6--3-4-6-6-6-------6--3-4-|


Chorus 2: 2x
G|------------------------------------|
D|-----------------------3333-6-------|
A|--------4444444-6666666------8-66---|
E|-6666666--------------------------9-|

Pre Verse
G|-----------------|
D|-----------------|
A|--9-7----9-7-----|
E|-7-7-45-7-7-45---|


Verse 2: convert (verse 1) a halve step higher


Bridge 1
G|----------------------------------------|
D|------------------------------7---------|
A|--7-7-7-7-7-7-7-7-7-7-7-7-7-7--9-77-----|
E|-0-0-0-0-0-0-0-0-0-0-0-0-0-0-------10---|


G|------------------------|
D|------------------------|
A|--9-7----9-7----9-7-----|
E|-7-7-45-7-7-45-7-7-45---|


Chorus 2: convert (chorus 1) a halve step higher

Pre Verse
G|-----------------|
D|-----------------|
A|--10-8----10-----|
E|-8--8-56-8--8-56-|


Verse 3: convert (verse 2) a halve step higher


Bridge 2
G|------------------------------3-------|
D|--3-3-3-3-3-3-3-3-3-3-3-3-3-3--5-33---|
A|-----------------------------------6--|
E|-1-1-1-1-1-1-1-1-1-1-1-1-1-1----------|


Pre verse: Aprox 10 times 
G|-----------------|
D|-----------------|
A|--10-8----10-----|
E|-8--8-56-8--8-56-|


End
G|---------------------------|
D|---------7-8-7-8-9-10-10---|
A|-7-8-9-10------------------|
E|---------------------------|
            
Submit corrections

comments powered by Disqus
↑ Back to top | Aretha Franklin Bass for Think. Lyrics for acoustic guitar and electric guitar. 1 Tablatures and chords are parodies/interpretations of the original songs. You may use it for private study, scholarship, research or language learning purposes only