» » »

Aqua, Barbie Girl Tabs (ver.1)

Artists:  A B C D E F G H I J K L M N O P Q R S T U V W X Y Z # 

Barbie Girl Tabs (ver.1)

Aqua Tabs
Rating:
3/5 (4 votes)
Barbie Girl lessons Tabs too difficult? Try these video lessons and learn fast
                 This by far the best Barbie Girl tab none of the others were even close!


Intro:

  C#m   F#m  B    E   C#m   F#m  Bsus4   B
e|-------------------------------0-------7-------------|
B|-9----10----7---9----9----10---12------7-------------|
G|-9----11----8---9----9----11---11------8-------------|
D|-11---11----9---9----11---11---13------9-------------|
A|-----------------------------------------------------|
E|-----------------------------------------------------|

Chours:
  
   
   C#m              F#m   B             E
   I'm a barbie girl      in the barbie world

   C#m             F#m     Bsus4          B
   Life in plastic,        it's fantastic!

   C#m                  F#m  B               E
   you can brush my hair,    undress me everywhere
  
   C#          F#M   Bsus4                 B     
   Imagination,      life is your creation

   



Verse:

   C#m        F#m      B       E
e|--------------------------------------------|
B|-9----------10-------7-------9--------------|
G|-9----------11-------8-------9--------------|
D|-11---------11-------9-------9--------------|
A|-11---------9--------9-------7--------------|
E|--------------------------------------------|

   C#                                     F#m
   I'm a blond bimbo girl, in the fantasy world
   
   B                           E
   Dress me up, make it tight, I'm your dolly

   C#m                          F#m
   You're my doll, rock'n'roll, feel the glamour in pink,

   B                             E
   kiss me here, touch me there, hanky panky...

   C#m           F#m   B            E
   You can touch,      you can play   

   C#m        F#m   Bsus4             B
   if you say       I'm always yours"


Bridge:

    A      B     G#m    C#m
e|-------------------------------------|
B|--5------7-------------9-------------|
G|--6------8------8------9-------------|
D|--7------9------9------11------------|
A|----------------11-------------------|
E|-------------------------------------|
    

   A               B 
   Come on Barbie, let's go party!
   
   G#m      C#m
   Ah ah    ah yeah

   G#m             B
   Come on Barbie, let's go party!
   
   G#m    B
   uu-oo  oh-u


Ending:

e|--------------------------7------------------|
B|-5----7-------------5--7--7---9--------------|
G|-6----8---8---9-----6--8--8---9--------------|
D|-7----9---9---11----7--9--9---11-------------|
A|----------11--11-----------------------------|
E|---------------------------------------------|
            

comments powered by Disqus
↑ Back to top | Aqua Tabs for Barbie Girl. Lyrics for acoustic guitar and electric guitar. Tablatures and chords are parodies/interpretations of the original songs. You may use it for private study, scholarship, research or language learning purposes only