» » »

April Wine, You Could Have Been A Lady Tabs (ver.1)

Artists:  A B C D E F G H I J K L M N O P Q R S T U V W X Y Z # 

You Could Have Been A Lady Tabs (ver.1)

April Wine Tabs
Rating:
4/5 (3 votes)
You Could Have Been A Lady lessons Tabs too difficult? Try these video lessons and learn fast
                

G5 - 355xxx
D5 - x577xx
C5 - x355xx

(Fade in)

G5    D5

Riff (over D5-C5-G5-D5)
E|------------------------
B|------------------------
G|------------------------
D|-------3--5--3b---------
A|-0h3h5-----------5p3p0--
E|------------------------

Play riff twice

You could have been alright
You could have been sweet as wine
You could have been here tonight
You could have been a lady

You could have been alright
You could have been here tonight
You could have been sweet as wine
You could have been a lady

Solo 1:
E|-14----14br--12----12--12h14br------------------------------14----14p12-----
B|-------------------------------12----13p12h13p12h13-12--10--------------12/-
G|----------------------------------------------------------------------------
D|----------------------------------------------------------------------------
A|----------------------------------------------------------------------------
E|----------------------------------------------------------------------------

Riff 2a:        | Riff 2b:
E|--------------|-------------
B|--------------|-------------
G|--------------|-------------
D|--------------|-------------
A|-------3------|-------3-----
E|-3-3-5----10/-|-3-3-5----8/-

They all need you (Riff 2a)
To make love you (Riff 2b)
When you awake find them on the bed lying beside you (Riff 2a)
They all love you (Riff 2a)
You're a good girl (Riff 2b)
And aren't you surprised when you find just where you're going to (Riff
2a)

Chorus

Solo 2:
E|-------12-14--14br--12p9--12br---------------------------------14--12p9-
B|-12-14--------------------------14p12----13p12h13p12h13-12--10----------
G|------------------------------------------------------------------------
D|------------------------------------------------------------------------
A|------------------------------------------------------------------------
E|------------------------------------------------------------------------

E|---------
B|-12--12/-
G|---------
D|---------
A|---------
E|---------

If I told you
Where you're going to
You'd laugh in my face, I'm out of place, mind your business
They all want you
To make love to
It's a shame they play the game they way they like to

Fill:
E|--14br--14p12---------
B|--------------14--12/-
G|----------------------
D|----------------------
A|----------------------
E|----------------------

Chorus

(Guitars out) (x2)
Na na na na na na
Na na na na na na
Na na na na na na
Na na

Chorus

Outro:

Second guitar: solo 1 to end

First guitar (probably not right at all!)
E|---------------------------------------------------------------------------
B|---------------------------------------------------------------------------
G|--7----7/5----5--------7----7--7p6h7p6-5--5--5h7---------------------------
D|--7----7/5----5-5----5-7-------------------------5--5p4h5p4h5--------------
A|--5----5/3----3-5----5-5--------------------------------------5--3--3h5----
E|----------------3----3---------------------------------------------------3-

E|------------------------------------------------------
B|-----8-10--8p7h8p7------------------------------------
G|-7/9---------------9p7---9br-7------------------------
D|--------------------------------9--9--9br-7-----------
A|--------------------------------------------5--5h7----
E|----------------------------------------------------5-

(Repeat second line of tab, then fade out)
            

comments powered by Disqus
↑ Back to top | April Wine Tabs for You Could Have Been A Lady. Lyrics for acoustic guitar and electric guitar. Tablatures and chords are parodies/interpretations of the original songs. You may use it for private study, scholarship, research or language learning purposes only