» » »

Anti-Flag, Stars And Stripes Tabs (ver.1)

Artists:  A B C D E F G H I J K L M N O P Q R S T U V W X Y Z # 

Stars And Stripes Tabs (ver.1)

Anti-Flag Tabs
Rating:
0/5 (0 votes)
Hard to play? Try these video lessons and learn fast.
                  *= palm mute
  >= let ring
  *= strum and stop
  x= dead notes(lefthand muting)
    Intro:after bass
e|---------------------------------------------------------------------------|
B|---------------------------------------------------------------------------|
G|--66666666-----------------------------------------------------------------|
D|--66666666-77777777-22222222-44444444--------------------------------------|
A|--44444444-77777777-22222222-44444444--------------------------------------|
E|-----------55555555-00000000-22222222--------------------------------------|
P.M.******** ******** ******** ********    
     Chorus:
e|---------------------------------------------------------------------------|
B|---------------------------------------------------------------------------|
G|--66666666-----------------------------------------------------------------|
D|--66666666-7777777-22222222-44444444---------------------------------------|
A|--44444444-7777777-22222222-44444444---------------------------------------|
E|-----------5555555-00000000-22222222---------------------------------------|
    
    Verse
e|---------------------------------------------------------------------------|
B|---------------------------------------------------------------------------|
G|----6->---->---->----------------------------------------------------------|
D|----6->---->---->----77-*--------------------------------------------------|
A|----4->---->---->----77-*--------------------------------------------------|
E|---------------------55-*--------------------------------------------------|
 
   
e|---------------------------------------------------------------------------|
B|---------------------------------------------------------------------------|
G|---------------------------------------------------------------------------|
D|-----666666666666x-x-x-x-x-------------------------------------------------|
A|-----666666666666x-x-x-x-x-------------------------------------------------|
E|-----444444444444x-x-x-x-x-------------------------------------------------|
 p.m.  ************
   Chorus - 
e|---------------------------------------------------------------------------|
B|---------------------------------------------------------------------------|
G|----66666666---------------------------------------------------------------|
D|----66666666-77777777-22222222-44444444------------------------------------|
A|----44444444-77777777-22222222-44444444------------------------------------|
E|-------------55555555-00000000-22222222------------------------------------|
 
   Verse
e|---------------------------------------------------------------------------|
B|---------------------------------------------------------------------------|
G|----6-->---->---->---------------------------------------------------------|
D|----6-->---->---->------7--*-----------------------------------------------|
A|----4-->---->---->------7--*-----------------------------------------------|
E|------------------------5--*-----------------------------------------------|
 
e|---------------------------------------------------------------------------|
B|---------------------------------------------------------------------------|
G|---------------------------------------------------------------------------|
D|----666666666666x-x-x-x-x--------------------------------------------------|
A|----666666666666x-x-x-x-x--------------------------------------------------|
E|----444444444444x-x-x-x-x--------------------------------------------------|
 
   Chorus
e|---------------------------------------------------------------------------|
B|---------------------------------------------------------------------------|
G|---66666666----------------------------------------------------------------|
D|---66666666-77777777-22222222-44444444-------------------------------------|
A|---44444444-77777777-22222222-44444444-------------------------------------|
E|------------55555555-00000000-22222222-------------------------------------|
 
   Bridge play 2xs then palm mute the whole thing
e|---------------------------------------------------------------------------|
B|---------------------------------------------------------------------------|
G|-----44444444-66666666-----------------------------------------------------|
D|-----44444444-66666666-77777777-22222222-----------------------------------|
A|-----22222222-44444444-77777777-22222222-----------------------------------|
E|-----------------------55555555-00000000-----------------------------------|
 
  Repeat Chorus twice
            

comments powered by Disqus
↑ Back to top | Anti-Flag Tabs for Stars And Stripes. Lyrics for acoustic guitar and electric guitar. Tablatures and chords are parodies/interpretations of the original songs. You may use it for private study, scholarship, research or language learning purposes only