>
 >
The Dark

The Dark Bass Tabs

Anouk - The Dark chords, tabs, tablatures, lyrics

Guitar lessons | Add/correct | Request | Top 50 tabs Artists:  A B C D E F G H I J K L M N O P Q R S T U V W X Y Z 0-9

The Dark Bass Tabs – Anouk

CD, Sheet music, Poster

Do you like The Dark? Share with your friends now
Bass TabsBass Tabs v2Tabs
Intro

G|-----------------------------------|    |-----------------------|            
D|---------0h2-2-2-2--0-0-0-0--------|    |-----0h2-2-2-2-2-2-----|           
A|----------------------------3-3-3-3|x3  |-------------------3---|           
E|-0-0-0-0---------------------------|    |-0-0-------------------|            
B|-----------------------------------|    |---------------------1-|            


First Verse
G|-------------------------10h12-------------------------10h12----------------
D|--------2----------x----------11------2--------x-------------11-------------
A|-------------0h2-x-----------------------0h2-x------------------------------
E|--0-x-x--------------x-x--------0-x-x------------x--------------------------
B|----------------------------------------------------------------------------
    T T T P    T   T P T T   P  P T T T P  T   T P T      P    P

---------------------------10h12----------------------------------------------
----------2----------x----------11------2-------x-----------------------------
---------------0h2-x------------------------------1h2-2p1-1p0-----------------
----0-x-x--------------x-x--------0-x-x-----0-x-------------------------------
    T T T P     T  T P T T   P  P T T T P   T T P  T   T   T

---------------------------10h12----------------------------------------------
----------2----------x----------11------2-------x------/8h9p8h9---------------
---------------0h2-x----------------------------------------------------------
----0-x-x--------------x-x--------0-x-x-----0-x---x---------------------------
    T T T P     T  T P T T   P  P T T T P   T T P T    T

---------------------------10h12---------------------------------------------|
----------2----------x----------11------0h2----------------------------------|
---------------0h2-x---------------------------------------------------------|
----0-x-x--------------x-x--------0-x-x-----0--------------------------------|
    T T T P     T  T P T T   P  P T T T  P  T

Chorus
G|---------------------------------------------------------------------------|            
D|---------0h2-2-2-2--0-0-0-0--------------0h2-2-2-2-2-2---------------------|           
A|----------------------------3-3-3-3--------------------3-------------------|           
E|-0-0-0-0-----------------------------0-0--------------------5/12\5---------|            
B|---------------------------------------------------------1-----------------|            


Second Verse 
G|-------------------------10h12----------------------------------------------
D|--------2----------x----------11------2-------x-----------------------------
A|-------------0h2-x-----------------------------------14\--------------------
E|--0-x-x--------------x-x--------0-x-x-----0-x---x-x-------------------------
B|----------------------------------------------------------------------------
    T T T P     T  T P T T    P P T T T P   T T P T T   T

---------------------------10h12-----------6-----7-7---x----------------------
----------2----------x----------11--------------------------------------------
---------------0h2-x-------------------0h4---4/5-----x---5h7------------------
----0-x-x--------------x-x---------0--------------------------0---------------
    T T T P     T  T P T T   P  P  T    T P   T  P P T P  T   T

---------------------------10h12----------------------------------------------
----------2----------x----------11------2-------x-----------------------------
---------------0h2-x-----------------------------------14\--------------------
----0-x-x--------------x-x--------0-x-x-----0-x---x-x-------------------------
    T T T P     T  T P T T   P  P T T T P   T T P T T  T

---------------------------10h12---------------------------------------------|
----------2----------x----------11------0h2----------------------------------|
---------------0h2-x---------------------------------------------------------|
----0-x-x--------------x-x--------0-x-x-----0--0-0-0-0-0-0-0-----------------|
    T T T P     T  T P T T   P  P T T T  P  T

Second Chorus
G|-----------------------------------|    |-----------------------|            
D|---------0h2-2-2-2--0-0-0-0--------|    |-----0h2-2-2-2-2-2-----|           
A|----------------------------3-3-3-3|x3  |-------------------3---|           
E|-0-0-0-0---------------------------|    |-0-0-------------------|            
B|-----------------------------------|    |---------------------1-|            


Interlude
G|---------------------------------------------------------------------------|
D|-----------------------------9h10--9-7-------------------------------------|
A|---------0-0-0-0-(...)-----------------7---0-0-0-0-(...)-------------------| 
E|--5/10\--------------------------------------------------------------------|
B|---------------------------------------------------------------------------|


Enjoy





Comments


Popular Anouk tabs & chords
Nobody's Wife Bass Tabs
Ball And Chain Chords
Falling Sun Chords
Killer Bee Chords
My Life 1 Chords
One Word Chords
Time Is A Jailer Chords
The Dark Tabs
Time Is A Jailer Tabs
It Wasnt Me Ukulele


Song lyrics



↑ Back to top | Tablatures and chords are parodies/interpretations of the original songs. You may use it for private study, scholarship, research or language learning purposes only
© 2014 AZChords.com Contact us | Privacy policy | DMCA | Add/correct tabs | Request tabs | Top 50 tabs