>
 >
Carry On 1

Carry On 1 Guitar Tabs

Angra - Carry On 1 chords, tabs, tablatures, lyrics

Guitar lessons | Add/correct | Request | Top 50 tabs Artists:  A B C D E F G H I J K L M N O P Q R S T U V W X Y Z 0-9

Carry On 1 Guitar Tabs – Angra

CD, Sheet music, Poster

Do you like Carry On 1? Share with your friends now
ChordsTabsTabs v2Tabs v3Ukulele
Band : Angra
Song : Carry On



Tabs explanation

T : Tapping



Tune Down 1/2 step


Intro (gtr1)

e:---------------------------------------------------------------------------|
B:Pm--(-------)---(-------)---(-------)---(-------)-----------(-------)---(--|
G:-----5--4--5-----5--4--5-----5--4--5-----5--4--5----2--2-----5--4--5-----5-|
D:--7-----------7-----------7-----------7-------------0--0--7-----------7----|
A:---------------------------------------------------------------------------|
E:---------------------------------------------------------------------------|


e:---------------------------------------------------------------------------|
B:-----)---(-------)---(-------)---------5----3---(-------)---(-------)------|
G:-4--5-----5--4--5-----5--4--5----------0----4-------5--4--5-----5--4--5----|
D:-------7-----------7-------------------5----0----7-----------7-----------7-|
A:-------------------------------3--3----3-----------------------------------|
E:---------------------------------------------------------------------------|                                (____)                                



Intro(gtr 2)

e:---------------------------------------------------------------------------|
B:(-------)---(-------)-3--3--|----(-------)---(-------)---(-------)---(-----|
G:-5--4--5-----5--4--5--2--2--|-----9--7--9-----9--7--9-----9--7--9-----9--7-|
D:----------7-----------0--0--|--7-----------7-----------7-----------7-------|
A:----------------------------|----------------------------------------------|
E:---------------------------------------------------------------------------|


e:---------------------------------------------------------------------------|
B:--)---3--3------(-------)---(-------)---(-------)---(-------)---------5---3|
G:-9----2--2-------9--7--9-----9--7--9-----9--7--9-----9--7--9----------0---4|
D:------0--0----7-----------7-----------7-----------7-------------------5---0|
A:----------------------------------------------------------------3--3--3----|
E:---------------------------------------------------------------------------|



Riff 1(gtr 1)

e:---------------------------------------------------------------------------|
B:-----(-------)---(-------)---(-------)---(-------)-3--3--|-----------------|
G
A:------9--7--9-----9--7--9-----9--7--9-----9--7--9--4--4--|--10~--10--12--14|
D:---7-----------7-----------7-----------7-----------0--0--|-----------------|

  

Riff 1(gtr 2)                                 

e:---------------------------------------------------------------------------|
B:---------------12--|---------------------------9--|-Repeat-Intro-|---------|
G:--13~--13--14------|--7~--7--9--10--9~--9--11-----|--------------|--10~--10|
D:-------------------|------------------------------|--------------|---------|
A:-------------------|------------------------------|--------------|---------|
E:---------------------------------------------------------------------------|  

                              T       T                         

e:---------------------------12h17p12p8h12p8----T--------------10h15p10p7h10-|
B:-----------------------12------------------10h13p10----T-------------------|
G:--12--14--13~--13--14--------------------------------9h14p9----------------|
D:---------------------------------------------------------------------------|
A:---------------------------------------------------------------------------|
E:---------------------------------------------------------------------------|


e:---T-----------------------------------------------13--12--10--------------|
B:-8h12p8----T-----------------------------------12--------------13--12--10--|
G:---------7h12p7--10~--10--12--14--13~--13--14------------------------------|
D:---------------------------------------------------------------------------|
A:---------------------------------------------------------------------------|
E:---------------------------------------------------------------------------|
 

e:---------------------------------------------------------------------------|
B:9--10--12--10--------------------------------------------------------|-----|
G:---------------10--9--7----------------------------------------------|--6~-|
D:-------------------------10--9--7--6--7--9--7--6---------------------|-----|
A:--------------------------------------------------8--7--5------------|-----|
E:-----------------------------------------------------------8--7--5~--------|   



(gtr 2)

e:-------------------------(two-hands-same-as-gtr-1)-------------------------|
B:----------------------9----------------------------------------------------|
G:-6--9--10--9~--9--11--------------------------------6~--6--9--10--9~--9--11|
D:---------------------------------------------------------------------------|
A:---------------------------------------------------------------------------|
E:---------------------------------------------------------------------------|


e:-----17--15--13------------------------------------------------------------|
B:--9--------------17--15--13--12--13--15--13--12----------------------------|
G:--------------------------------------------------14--12--10---------------|
D:--------------------------------------------------------------14--12--10--9|
A:---------------------------------------------------------------------------|
E:---------------------------------------------------------------------------| 

                                           Verse 1
e:---------------------------------------------------------------------------|
B:----------------------------------------|----------------------------------|
G:----------------------------------------|----------------------------------|
D:--10--12--10--9-------------------------|--------------------7----5--5--5-(|
A:-----------------12--10--8--------------|--7-(-----)-7-------5----3--3--3--|
E:----------------------------12--10--8~-----5--5-5-5--5-(4x)----------------|


e:---------------------------------------------------------------------------|
B:-----------------------------------------------------------------------2x|-|
G:-------------------------------------------------------------------------|-|
D:----------)--------------------------(-------------------)---7--7--7--7--|-|
A:5--5--5--5-----7-(-----)-7---------3--3-3-3--3-3-3--3-3-3----5--5--5--5--|-|
E:3--3--3--3-----5--5-5-5--5-(4x)----1--1-1-1--1-1-1--1-1-1------------------|


                                                Chorus
e:----------------------------------------------------3----------------------|
B:Repeat-Intro-|-Repeat-All-Riffs-and-verse-1-|-------0----------------------|
G:-------------|------------------------------|-------0----------------------|
D:-------------|------------------------------|--5----0----2-----------(-----|
A:-------------|------------------------------|--3---------0----2----2--3--3-|
E:----------------------------------------------------3---------0----0--1--1-|


e:---------------------------------------------------------------------------|
B:---------------------------------------------------------------------------|
G:-------------------------------------------------------------------4/5-----|
D:-----------------------------------------)-7----5----5--------2---------5--|
A:3-3--3-3-3--3-3-3--2--2-2-2--2-2-2--2-2-2--5----3----2--------0----2/3-----|
E:1-1--1-1-1--1-1-1--0--0-0-0--0-0-0--0-0-0---------------3~--------------3--|


                                   1st solo (gtr 1)

e:---------------------------------------------------------------------------|
B:-------------|-Repeat-Intro-1x-|-------------------------------ah----------|
G:-------------|-----------------|--10~--10--12--14--12~----10~--10~--12--14-|
D:2------------|-----------------|-------------------------------------------|
A:-----3----5--|-----------------|-------------------------------------------|
E:0----1----3----------------------------------------------------------------|


e:---------------------------------------------------------------------------|
B:-ah--10----------11----------11--13------------------------6--------8------|
G:-12------10--10------10--10----------12b(14)rb12--10--12~-----7--7-----7--7|
D:---------------------------------------------------------------------------|
A:---------------------------------------------------------------------------|
E:---------------------------------------------------------------------------|


e:---------------------------------------------------------------------------|
B:--8--8--10--6--8--10--11--8--10--11--10--8---------------------------------|
G:--------------------------------------------10--9--7--6~--10~--12--14--12~-|
D:---------------------------------------------------------------------------|
A:---------------------------------------------------------------------------|
E:-----------------------------------------------------





Comments


Popular Angra tabs & chords
Bleeding Heart Chords
No Pain For The Dead Chords
Angels Cry Tabs
Angels Cry 1 Tabs
Heroes Of Sand Tabs
Nova Era Tabs
Paradise Tabs
Whutering Heights Tabs
Z.I.T.O Tabs
Lease Of Life Ukulele


Song lyrics



↑ Back to top | Tablatures and chords are parodies/interpretations of the original songs. You may use it for private study, scholarship, research or language learning purposes only
© 2014 AZChords.com Contact us | Privacy policy | DMCA | Add/correct tabs | Request tabs | Top 50 tabs