>
 >
Love Story

Love Story Chords

Andy Williams - Love Story chords, tabs, tablatures, lyrics

Guitar lessons | Add/correct | Request | Top 50 tabs Artists:  A B C D E F G H I J K L M N O P Q R S T U V W X Y Z 0-9

Love Story Chords – Andy Williams

CD, Sheet music, Poster

Do you like Love Story? Share with your friends now
ChordsChords v2Chords v3TabsUkulele
---------------------------------------------------------------------
                         Love Story  - Andy Williams
---------------------------------------------------------------------

Tuning: standard

Notes:
Original key sounds like Bbm but it's easier for guitar fingering to play in Am. 
Of course you can use capo on 1st fret if you want to play in Bbm.

If you are not experienced with "complex" chords don't worry - they are not always 
more difficult to play just because they have long names. Don't skip over them - 
they are what makes the song sound so good! Below are  the chord positions I use. 
The hardest finger stretch is on Bbm7/Ab (Bbm7 with Ab in the bass)Use little 
finger for the Ab bass.

X = MUTE
      
      Am    Bdim   Am7/G      F      E7      A      A7
e|-----0------1------0--------1-------0------0------0---------------|
B|-----1------0------1--------1-------0------2------2---------------|
G|-----2------1------0--------2-------1------2------0---------------|
D|-----2------0------2--------3-------0------2------2---------------|
A|-----0------X------X--------3-------2------0------0---------------|
E|-----X------X------3--------1-------0------X------X---------------|


      Dm7    G7    Cmaj7   Fmaj7     B7   Bbm  Ebdim Bbm7/Ab    F7
e|-----1------1------0-------0--------2----1-----2-----1---------1--------|
B|-----1------0------0-------1--------0----2-----1-----2---------1--------|
G|-----2------0------0-------2--------2----3-----2-----1---------2--------|
D|-----0------0------2-------3--------1----3-----1-----3---------1--------|
A|-----X------2------3-------X--------2----1-----X-----X---------3--------|
E|-----X------3------X-------X--------X----X-----X-----4---------1--------|




Am                                                 Bdim
Where   do   I  begin, to  tell  the  story of how great a love can be 
                             Am             Am7/G
The sweet love story that is older than the sea 
F                             E7
The  simple  truth  about the love she brings to me 
           Am
Where do i start.

Am                                                  Bdim
With  her  first  hello  she gave a meaning  to this empty world of mine 
                           Am           Am7/G
There'd  never  be another love another time 
F                        E7
She came into my life and made the living fine 
E7           A    A7  
She fills my heart . . .


A7           Dm7              G7                        Cmaj7
She fills my heart  with very special things, with angel songs 
          Fmaj7                    E7                  Am
With wild imaginings,  she fills my soul  with so much love 
Am              Dm7          G7               Cmaj7              Fmaj7
That anywhere I go  Im never lonely  with her along who could be lonely     
                B7                E7 . . .
I reach for her hand  it's always there 

Am                                                 Bdim
How long does it last, can love be measured by the hours in a day 
                               Am                 Am7/G
I  have  no  answers  now  but  this  much  I can  say 
F                             E7                                Am
I know I'll need her till the stars all burn away and she'll be there. 

(Now there is a key change - everything goes up one fret. Brilliant!)

Bbm                                                Ebdim
How long does it last, can love be measured by the hours in a day 
                                Bm                Bbm7/Ab
I  have  no  answers  now  but  this  much  I can  say 
F#                           F7                                Bm
I know ill need her till the stars all burn away and she'll be there 


END





Comments


Popular Andy Williams tabs & chords
Home Lovin Man Chords
Its The Most Wonderful Time Of The Year Chords
Love Is Blue Chords
Love Story 2 Chords
More 1 Chords
Stranger On The Shore Chords
Theme From A Summer Place Chords
Where Do I Begin Chords
Getting Over You Ukulele
Moon River Ukulele


Song lyrics



↑ Back to top | Tablatures and chords are parodies/interpretations of the original songs. You may use it for private study, scholarship, research or language learning purposes only
© 2014 AZChords.com Contact us | Privacy policy | DMCA | Add/correct tabs | Request tabs | Top 50 tabs