» » »

And One, Traumfrau Tabs (ver.1)

Artists:  A B C D E F G H I J K L M N O P Q R S T U V W X Y Z # 

Traumfrau Tabs (ver.1)

And One Tabs
 Rating:
4.3/5 (6 votes)
Traumfrau lessons Tabs too difficult? Try these video lessons and learn fast
                -------------------------------------------------------------------------------
                            Traumfrau  - And One
                                 *requested*
-------------------------------------------------------------------------------

Tuning: E-Standard

//////////////////////////////////////////////
//                                          //
//  RATING THIS TAB TAKES ABOUT 5 SECONDS   //
//  AND HELPS ME TO IMPROVE MY WORK         //
//                                          //
//////////////////////////////////////////////

Intro:


Main Melody
e|---------------------------------------------------------|
B|---------------------------------------------------------|
G|--------7--------8--8-7------------7-------10--8-7----3--|
D|--5-7-8----5-7-8---------4-4-5-7-8---5-7-8----------4----|
A|---------------------------------------------------------|
E|---------------------------------------------------------|

Synth Bass
e|----------------------------------|
B|----------------------------------|
G|----------------------------------|
D|---5---5---5---7---8---8-1-2---4--|
A|----------------------------------|
E|--3--3---3---5---6---6-------2----| continues

..............................................................................
Verses:


"Mir .. Träne Lohn"                "viel zulang..ich schon"
e|---------------------------------------------------------------------------|
B|-----------------------------------------------------------------6~--------|
G|-----------------7---5-----------------------------------------------7~----|
D|-----------------------8-7-5-5---------------------------5~--8~------------|
A|---------------------------------------------------------------------------|
E|---------------------------------------------------------------------------|

bass variation at "Wunderschritt nach vorwärts"
e|------------------------------------------------------------------|
B|------------------------------------------------------------------|
G|----5---5---5---7---8---8---8---8---------------------------------|
D|------------------------------------3---3---0---3---5---5---------|
A|--3---3---3---5---6---6---6---6-----------------------------------|
E|----------------------------------1---1---1---1---3---3---3-5-6-3-| appears from time to time
                                                                      w/ variations

................................................................................
[chorus]



Suggestion:
e|-------------------------------------------------------------------------||
B|-------------------------------------------------------------------------||
G|-------------------------8---8------5---5---------------7----------------||
D|----5---5------------------------------------8---8-----------4----3---3--|| bass
A|---------------2---2---6---6------3---3---------------5----5-------------||
E|--3---3------3---3-------------------------6---6----------------1---1----||
                                                                            |
e|--3-------------------------------3--------6--------------------1--------||
B|--3--------------------8----------4--------6--------------------1--------||
G|--3---------(4)--------8----------5--------7----------7----7----2--------||
D|--5----------5---------8----------5--------8----------7----4----3--------|| chords
A|--5----------2---------6----------3--------8----------5----5----3--------||
E|--3----------3-----------------------------6--------------------1--------||
    g minor1   gmajor*   D# major   c minor  A# major   d1   d2   F major





g minor              D# major
    Ich bau mir eine Traumfrau 

c minor       g minor
    In meiner Herzfabrik 

A# major            D# major
    Bevor ich ihren Klang bau 

c minor                d1
    Zerstör ich die Musik 

d2             D# major
    Nie wieder allein 

               c minor
    Nie wieder frei sein

                       g major*
    Wenn ich sie nicht anschau 

                     c minor
    Bau ich mir eine Traumfrau

F major             (A# major) g minor
    ich bau mir eine Traum-----frau




melodies between the lines:
e|----------------|-------------------|----------------|
B|----------------|-------------------|----------------|
G|-------7-5~-----|---7---------------|-----7----------|
D|-----5----------|-5---7~--5-8-7-----|---5---7~-(5)---|
A|----------------|---------------5~--|----------------|
E|----------------|-------------------|----------------|
       * * *        * * *   + + + +       * * *   *

* = "hard" synth
+ = ghostlike vibrato synth






| /  slide up
| \  slide down
| h  hammer-on
| p  pull-off
| ~  vibrato
| +  harmonic
| x  Mute note
===============================================================================

lyrics:


(Öffne die Augen )
(Vergiss' nicht wem du Dienst)

Mir folgt der Träne lohn 
Viel zu lang verweil' ich schon 
Wunderschritt nach vorwärts 
Und den alten Schmerz 
Schieb ich auf mein zweites Herz

Schöne Frau im dunkel lag 
Schuf meinen Arbeitstag 
Lüge brütet vor mir 
Fliessband läuft mit Gier 
Und die Sonne spricht zu mir

Ich bau mir eine Traumfrau 
In meiner Herzfabrik 
Bevor ich ihren Klang bau 
Zerstör ich die Musik 
Nie wieder allein 
Nie wieder frei sein 
Wenn ich sie nicht anschau' 
Bau ich mir eine Traumfrau
ich bau mir eine Traumfrau

Und wieder schraub ich neu 
Bleib meiner Linie treu 
Wunschneue Seele 
Programmiert nach ihr 
Und die Sonne spricht zu mir

Ich bau mir eine Traumfrau 
In meiner Herzfabrik 
Bevor ich ihren Klang bau 
Zerstör ich die Musik 
Nie wieder allein 
Nie wieder frei sein 
Wenn ich sie nicht anschau 
Bau ich mir eine Traumfrau
ich bau mir eine Traumfrau
            
Submit corrections

comments powered by Disqus
↑ Back to top | And One Tabs for Traumfrau. Lyrics for acoustic guitar and electric guitar. Tablatures and chords are parodies/interpretations of the original songs. You may use it for private study, scholarship, research or language learning purposes only