» » »

And One, Military Fashion Show Tabs (ver.1)

Artists:  A B C D E F G H I J K L M N O P Q R S T U V W X Y Z # 

Military Fashion Show Tabs (ver.1)

And One Tabs
 Rating:
4/5 (4 votes)
Military Fashion Show lessons Tabs too difficult? Try these video lessons and learn fast
                -------------------------------------------------------------------------------
                   Military Fashion Show  - And One
-------------------------------------------------------------------------------

Tuning: E- Standard

//////////////////////////////////////////////
//                                          //
//  RATING THIS TAB TAKES ABOUT 5 SECONDS   //
//  AND HELPS ME TO IMPROVE MY WORK         //
//                                          //
//////////////////////////////////////////////

Intro (with some variations) (- 0:22)
e|--------------------------------------------------------------------------------|
B|--------------------------------------------------------------------------------|
G|--------------------------------------------------------------------------------|
D|--------7-7---------8-8---------10-10---------11-11-10--------------------------|
A|--8-8-9-------8-8-9-------8-8-9-------8-8-8-9----------(8-8-8-8-8h9-8h9-8h9-8h9)|
E|------------8-----------8-------------------------------------------------------|

Maintheme (starting 0:23 with the drums)
e|--------------------------------------------------------|
B|--------------------------------------------------------|
G|--------------------------------------------------------|
D|--------7-7---------8-8---------10-10---------11-11-10--|
A|--8-8-9-------8-8-9-------8-8-9-------8-8-8-9-----------|
E|------------8-----------8-------------------------------|

e|--------------------------------------------------------|
B|--------------------------------------------------------|
G|--------------------------------------------------9-9---|
D|--------7-7---------8-8-----------10-10---------------11|
A|--8-8-9-------8-8-9-----9p8-8-8-9---------8-8-9---------|
E|------------8---------------------------8-------8-------|

Maintheme.Bass
e|------------------|
B|------------------|
G|------------------|
D|---3---3---3---3--|
A|------------------|
E|-1---1---1---1----| continues until:



"will I ever regret the line"
e|--------------------------------------------------------------|
B|--------------------------------------------------------------|
G|--------------------------------6---6---6---6---8---8---8---8-|
D|---3---3---3---3---3---3--5-6---------------------------------|
A|------------------------------4---4---4---4---6---6---6---6---|
E|-1---1---1---1---1---1----------------------------------------| then back to maintheme.bass


Chorus.Powerchords
e|-----------------------------------------------------------------|
B|-----------------------------------------------------------------|
G|-6-6-6-6-6-6-6-6-5-5-5-5-5-5-5-5---------------------------------|
D|-6-6-6-6-6-6-6-6-5-5-5-5-5-5-5-5-3-3-3-3-3-3-3-3-6-6-6-6-6-6-6-6-|
A|-4-4-4-4-4-4-4-4-3-3-3-3-3-3-3-3-3-3-3-3-3-3-3-3-6-6-6-6-6-6-6-6-|
E|---------------------------------1-1-1-1-1-1-1-1-4-4-4-4-4-4-4-4-|

e|-----------------------------------------------------------------|
B|-----------------------------------------------------------------|
G|---------3-------------------------------------------------------|
D|-1-------3-------5-5-5-5-5-5-5-5-3-3-3-3-3-3-3-3-3-3-3-3-3-3-3-3-|
A|-3-------1-------5-5-5-5-5-5-5-5-3-3-3-3-3-3-3-3-3-3-3-3-3-3-3-3-|
E|-----------------3-3-3-3-3-3-3-3-1-1-1-1-1-1-1-1-1-1-1-1-1-1-1-1-| 2 times


Chorus.melody
e|-----------------------------------------------------------------|
B|-----------------------------------------------------------------|
G|-----------------------------------------------------------------|
D|-------------------------------------------------10--8--10-11-10-|
A|-------10--8-----10--8--10-------10--8--10-----------------------|
E|-9---------------------------------------------------------------|

e|-----------------------------------------------------------------|
B|-----------------------------------------------------------------|
G|-------------------------------------------------12-13-10-12-----|
D|-10------8-------8----------------------------10-------------11--|
A|-------------------------11----------8-8-11-8--------------------|
E|-----------------------------------------------------------------|

Solo
e|------------------------------------------------------|
B|------------------------------------------------------|
G|------------------------------------------------------|
D|---10~-----8~-----------------------------------------|
A|-8-------8------8-11~---8-10--11----------------------|
E|---------------------------------9----8----3----1-----|

| /  slide up
| \  slide down
| h  hammer-on
| p  pull-off
| ~  vibrato
| +  harmonic
| x  Mute note
===============================================================================


Lyrics:

cutiest girl behind my door 
everybody's hiding in love from war 
the beauty broke down their chains somehow 
who's gonna living on my body now 

a growing pain within my pop divine 
will I ever regret the line 
switching on the light 
I will not reassign 
girlfriend's girlfriends never could be mine 

drop her white pants wide open warm 
now she's slipping on her uniform 
and every second would become so misdefined 
girlfriend's girlfriends never could be mine 

[chorus]
what can I do 
what can I say 
choose your weapon, time to pay 
forget about the second day 
we could be friends 
with a kiss and flow 
choose your weapon, time to go 
a military fashion show 
[/chorus]

cutiest girl ask for more 
unfortunately someone's creeping on my floor 
an empty glass, a topless babe, a knock on the door 
girlfriend's girlfriends never could be more 

[chorus]
what can I do 
what can I say 
choose your weapon, time to pay 
forget about the second day 
we could be friends 
with a kiss and flow 
choose your weapon, time to go 
a military fashion show 

what can I do 
what can I say 
choose your weapon, time to pay 
forget about the second day 

what can I do 
what can I say 
choose your weapon, time to pay 
forget about the second day 
we could be friends 
with a kiss and flow 
choose your weapon, time to go 
a military fashion show 

what can I do 
what can I say 
choose your weapon, time to pay 
forget about the second day 
we could be friends 
with a kiss and flow 
choose your weapon, time to go 
a military fashion show 

forget about the second day 

forget about the second day 

forget about the second day
[/chorus]
            
Submit corrections

comments powered by Disqus
↑ Back to top | And One Tabs for Military Fashion Show. Lyrics for acoustic guitar and electric guitar. Tablatures and chords are parodies/interpretations of the original songs. You may use it for private study, scholarship, research or language learning purposes only