» » »

Anathema, Dreaming Light Chords (ver.1)

Artists:  A B C D E F G H I J K L M N O P Q R S T U V W X Y Z # 

Dreaming Light Chords (ver.1)

Anathema Tabs
 Rating:
4/5 (6 votes)
Dreaming Light lessons Tabs too difficult? Try these video lessons and learn fast
1
                ================================================================================
                                A N A T H E M A

                                       -

                           D R E A M I N G   L I G H T

                                ( C H O R D S )
================================================================================


                          WE'RE HERE BECAUSE WE'RE HERE
                           (c) KScope Records (2010)


                      Standard Tuning with Capo on 6th Fret
                                   E A D G B E

                                  Tempo = 74 BPM
                          Time Signature = 4/4, 4/4, 2/4



                          -----------------------------

                                 PADDY MCMULLAN

                                   Version 2.0
                                 19th  July 2011
                             -----------------------



                                   ===========
                                   Song Notes:
                                   ===========


 The notes and chords are relative to the capo on the 6th fret, with the first
 fret actually being the 7th, and open strings being the 6th, etc.  The chord
names used refer to the chord shapes and positions relative to the capo instead
  of being representitive of the actual notes being played.  For instance, the
                       G chord shown here is actually C#.

These chords are based heavily upon those used by the band during solo acoustic
                      performances with some slight variations.



                         Chords Used (Capo on 6th Fret):


                    Fsus2       Cm7        Em        Gadd11

                ||----3----||----3----||----3----||----3----||
                ||----1----||----1----||----0----||----1----||
                ||----0----||----0----||----0----||----0----||
                ||----3----||----2----||----2----||----0----||
                ||----3----||----2----||----2----||----2----||
                ||----1----||----0----||----0----||----3----||
                   (Thumb)


                      G         A7Sus4       C         G6

                ||----3-----||---3-----||----3----||----3----||
                ||----0-(3)-||---3-----||----1----||----3----||
                ||----0-----||---2-(0)-||----0----||----0----||
                ||----0-----||---2-----||----2----||----2----||
                ||----2-----||---0-----||----x----||----2----||
                ||----3-----||---------||----3----||----0----||


                               Cadd11       Am7

                            ||----0----||----3----||
                            ||----1----||----1----||
                            ||----0----||----0----||
                            ||----3----||----2----||
                            ||----3----||----0----||
                            ||----1----||---------||
                               (Thumb)





================================================================================
Piano Arranged for Acoustic Guitar
================================================================================


Each chord name represents a half note/bar within the tempo of the song.  During
the verses, pre-choruses and choruses the time signature is 4/4, 4/4, 2/4 (as
outlined above the first set of chords).  The interlude and outro are simply
4/4.



[ Verse 1 ]

4/4................... 2/4
----------------------------
| Fsus2 Am7 | Cm7 Cm7 | Em |
----------------------------


Suddenly life has new meaning
Suddenly feeling is being
(and)



[ Pre-Chorus 1 ]

----------------------------
| Fsus2 Am7 | Cm7 Cm7 | Em |
----------------------------


You shine inside and
Love stills my mind like the
(sun...)



[ Chorus 1 ]

---------------------------------
| Fsus2 Am7 | Gadd11 Gadd11 | G |
---------------------------------

(sun)rise
Dreaming light of the
Sunrise.



[ Verse 2 ]

----------------------------
| Fsus2 Am7 | Cm7 Cm7 | Em |
----------------------------

Suddenly I don't have to be afraid
Suddenly it all falls into place
(and)



[ Pre-Chorus 2 ]


----------------------------
| Fsus2 Am7 | Cm7 Cm7 | Em |
----------------------------

You shine inside and
Love stills my mind like the
(sun...)



[ Chorus 2 ]

---------------------------------
| Fsus2 Am7 | Gadd11 Gadd11 | G |
---------------------------------

(sun)rise
Dreaming light of the sunrise
(and)


----------------------------
| Fsus2 Am7 | Cm7 Cm7 | Em |
----------------------------

You shine inside and
Love stills my mind like the
(sun...)


---------------------------------
| Fsus2 Am7 | Gadd11 Gadd11 | G |
---------------------------------

(sun)rise
Dreaming light of the sunrise


4/4....................
-----------------------
| Gadd11 Gadd11 | G G |
-----------------------



[ Interlude ]


| A7Sus4  | Fsus2  | C      | G  |

| A7Sus4  | Fsus2  | Gadd11 | G6 |

| Fsus2   | A7Sus4 | Gadd11 | G6 |

| Cadd11  | A7sus4 | Gadd11 | G6 | x 4

| Cadd11  | A7Sus4 | Gadd11 | G  |


I feel you but I don't really know you
I dreamed of you from the moment I saw you
And I've seen the sunrise in your eyes
The sky... the sea... the light



[ Outro ]


    A7Sus4                       Fsus2
||----------------------------|----------------------------|
||--3-----3-----------1-------|--1-----1-----------1-------|
||-----0-----0-----------0----|-----0-----0-----0-----0----|
||-----------------2----------|--------------3-------------|
||--0-----------0-------------|----------------------------|
||----------------------------|--1-------------------------|

   C                            G
|----------------------------|----------------------------|
|--1-----1-----------1-------|--3-----3-----------3-------|
|-----0-----0-----0-----0----|-----0-----0-----0-----0----|
|--------------2-------------|----------------------------|
|--3-------------------------|--2-----------2-------------|
|----------------------------|----------------------------|

   A7Sus4                       Fsus2
|-----------------------0----|----------------------------|
|--3-----3-----------3-------|--1-----1-----------1-------|
|-----0-----0----------------|-----0-----0-----0-----0----|
|-----------------2----------|--------------3-------------|
|--0-----------0-------------|----------------------------|
|----------------------------|--1-------------------------|

   Gadd11                       G6
|--------------0-------------|----------------------------|
|--1-----1-----------1-------|--3-----3-----------3-------|
|-----0-----0-----0-----0----|-----0-----0-----0-----0----|
|----------------------------|--------------2-------------|
|----------------------------|----------------------------|
|--3-----------3-------------|--0-------------------------|

   Fsus2                        Am7
|-----3----------------------|--3-----3-----------0--1----|
|--5-----5-----5-----5-------|-----1-----1----------------|
|-----------5-----------5----|-----------------0----------|
|--3--------------3----------|--------------2-------------|
|----------------------------|--0-------------------------|
|----------------------------|----------------------------|

   C                            G6
|--3-----3-----3-----3-------|--3-----3-----3-----3-------|
|--1-----1-----------1-------|--3-----3-----------3-------|
|-----0-----0-----0-----0----|-----0-----0-----0-----0----|
|----------------------------|--------------2-------------|
|----------------------------|----------------------------|
|--3-----------3-------------|--0-------------------------|

   Fsus2                        Am7
|--0--------------------0----|--3-----3-----------3-------|
|-----3--------5-------------|-----1-----1-----------1----|
|--------5-----------5-------|-----------------0----------|
|--3--------3-----3----------|--------------2-------------|
|----------------------------|--0-------------------------|
|----------------------------|----------------------------|

   C                            G
|--3-----3-----3-----3-------|--3----||
|--1-----1-----------1-------|--3----||
|-----0-----0-----0-----0----|--0----||
|----------------------------|--0----||
|----------------------------|--2----||
|--3-----------3-------------|--3----||



So live your dream beneath the northern horizon
Be at peace, set your heart in flight again
For the light is truth
The light is you



================================================================================
End
================================================================================


Tab summary:        Verse 1
                    Pre-chorus 1
                    Chorus 1
                    Verse 2
                    Pre-chorus 2
                    Chorus 2
                    Interlude
                    Outro

                    END


-----------------------
Corrections (19/06/11):
-----------------------

* Completely retabbed using a capo
            
Submit corrections

comments powered by Disqus
↑ Back to top | Anathema Chords for Dreaming Light. Lyrics for acoustic guitar and electric guitar. 1 Tablatures and chords are parodies/interpretations of the original songs. You may use it for private study, scholarship, research or language learning purposes only