>
 >
Dreaming Light

Dreaming Light Bass Tabs

Anathema - Dreaming Light chords, tabs, tablatures, lyrics

Guitar lessons | Add/correct | Request | Top 50 tabs Artists:  A B C D E F G H I J K L M N O P Q R S T U V W X Y Z 0-9

Dreaming Light Bass Tabs – Anathema

CD, Sheet music, Poster

Do you like Dreaming Light? Share with your friends now
Bass TabsChordsTabsUkulele
================================================================================
                                A N A T H E M A

                                       -

                           D R E A M I N G   L I G H T
================================================================================


                          WE'RE HERE BECAUSE WE'RE HERE
                           (c) KScope Records (2010)


                              Tune down half a step:
                                   D# G# C# F#

                                  Tempo = 74 BPM
                              Time Signature = 4/4



                          -----------------------------

                                 PADDY MCMULLAN

                                   Version 1.0
                                  31st May 2010
                             -----------------------

                             Tablature Symbols Used:


 0h2       -  Hammer-on
 \         -  Slide Down to/Down From (Blank space indicates length of slide)
 /         -  Slide Up To/Up From (Blank space indicates length of slide)
 ( )       -  Ghost Note/Tied Note/Implied Note
 REST      -  Rest and sustain rest for duration of blank space



================================================================================
Rest for 30 bars
================================================================================

================================================================================
Part 1: Play 6 times
================================================================================


| |------------------------|------------------------| |------------| |
|4|----------0--2----2--5--|------------------------|2|------------|*|
|/|--3----3----------------|--0h2----2----2----2----|/|--2----2----|*|
|4|------------------------|------------------------|4|------------| |



================================================================================
Part 2: Play 2 times
================================================================================


| |------------------------|-----------------------| |-------------| |
|4|----------0--2----2--5--|-----------------------|2|-------------|*|
|/|--3----3----------------|--5----5----5--5--5----|/|--5--5--5----|*|
|4|------------------------|-----------------------|4|-------------| |



================================================================================
Play Part 1 two times
================================================================================

================================================================================
Play Part 2 two times
================================================================================

================================================================================
Part 3: Play once through
================================================================================


  1                           2
||---------------------------|--------------------------|
||---------------------------|--------------------------|
||--7--7--7--7--7--7--7--7 \ |--3--3--3--3--3--3--3--2--|
||---------------------------|--------------------------|

 3                          4
|--------------------------|--------------------------|
|--------------------------|--------------------------|
|--------------------------|--------------------------|
|--3--3--3--3--3--3--3--3--|--2--2--2--2--2--2--2--0--|

 5                           6
|---------------------------|--------------------------|
|---------------------------|--------------------------|
|--7--7--7--7--7--7--7--7 \ |--3--3--3--3--3--3--3--3--|
|---------------------------|--------------------------|

 7                           8
|---------------------------|--------------------------|
|---------------------------|--------------------------|
|--5--5--5--5--5--5--5--5 \ |--2--2--2--2--2--2--2--2--|
|---------------------------|--------------------------|

 9                           10
|---------------------------|--------------------------|
|---------------------------|--------------------------|
|--3--3--3--3--3--3--3--3 / |--7--7--7--7--7--7--7--7--|
|---------------------------|--------------------------|

 11                         12
|--------------------------|--------------------------|
|--------------------------|--------------------------|
|--5--5--5--5--5--5--5--5--|--2--2--2--2--2--2--2--2--|
|--------------------------|--------------------------|

 13                          14
|---------------------------|--------------------------|
|---------------------------|--------------------------|
|--3--3--3--3--3--3--3--3 / |--7--7--7--7--7--7--7--7--|
|---------------------------|--------------------------|

 15                         16
|--------------------------|--------------------------|
|--------------------------|--------------------------|
|--5--5--5--5--5--5--5--5--|--2--2--2--2--2--2--2--2--|
|--------------------------|--------------------------|

 17                         18
|--------------------------|--------------------------|
|--------------------------|--------------------------|
|--3--3--3--3--3--3--3--3--|--0--0--0--0--0--0--0--0--|
|--------------------------|--------------------------|

 19                         20
|--------------------------|--------------------------|
|--------------------------|--------------------------|
|--5--5--5--5--5--5--5--5--|--2--2--2--2--2--2--2--2--|
|--------------------------|--------------------------|

 21                         22
|--------------------------|--------------------------|
|--------------------------|--------------------------|
|--3--3--3--3--3--3--3--3--|--0--0--0--0--0--0--0--0--|
|--------------------------|--------------------------|

 23                         24
|--------------------------|--------------------------|
|--------------------------|--------------------------|
|--5--5--5--5--5--5--5--5--|--2--2--2--2--2--2--2--2--|
|--------------------------|--------------------------|

 25                          26
|---------------------------|--------------------------|
|---------------------------|-----------------------5--|
|--3--3--3--3--3--3--3--3 / |--7--7--7--7--7--7--7-----|
|---------------------------|--------------------------|

 27                         28
|--------------------------|--------------------------|
|--------------------------|--------------------------|
|--5--5--5--5--5--5--5--5--|--2--2--2--2--2--2--2--2--|
|--------------------------|--------------------------|

 29                          30                         31
|---------------------------|--------------------------|-------------------||
|---------------------------|-----------------------5--|-------------------||
|--3--3--3--3--3--3--3--3 / |--7--7--7--7--7--7--7-----|--5----------------||
|---------------------------|--------------------------|-------------------||



================================================================================
Rest for 3 bars
================================================================================

================================================================================
Outro: Play once through
================================================================================


  1                      2                   3
||----------------------|--5----------------|-------------------|
||----------------------|-------------------|-------------------|
||--7--------------  \--|-------------------|-------------------|
||----------------------|-------------------|--3----------------|


 4                   5                      6
|-------------------|----------------------|--5----------------|
|-------------------|----------------------|-------------------|
|-------------------|--7--------------  \--|-------------------|
|--2----------------|----------------------|-------------------|


 7                 8                 9                 10
|-----------------|-----------------|-----------------|-------------------|
|-----------------|-----------------|-----------------|-------------------|
|--5--------------|-----------------|-----------------|--7----------------|
|-----------------|--7--------------|--8--------------|-------------------|


 11                  12                13                14
|-------------------|-----------------|-----------------|-----------------|
|-------------------|-----------------|-----------------|-----------------|
|--5----------------|--2--------------|-----------------|--7--------------|
|-------------------|-----------------|--8--------------|-----------------|


 15                  16                  17
|-------------------|-------------------|-------------------||
|-------------------|-------------------|-------------------||
|--5----------------|--(5)--------------|--(5)--------------||
|-------------------|-------------------|-------------------||



================================================================================
End
================================================================================


Tab summary:        Part 1 x 6
                    Part 2 x 2
                    Part 1 x 2
                    Part 2 x 2
                    Part 3 x 1
                    Outro x 1

                    END





Comments


Popular Anathema tabs & chords
Dreaming Light Chords
Lost Control Chords
A Fine Day To Exit Tabs
Bloodless Tabs
Everything Tabs
One Last Good Bye Tabs
Panic Tabs
Release Tabs
Silent Enigma Instrumental Tabs
One Last Goodbye Ukulele


Song lyrics



↑ Back to top | Tablatures and chords are parodies/interpretations of the original songs. You may use it for private study, scholarship, research or language learning purposes only
© 2014 AZChords.com Contact us | Privacy policy | DMCA | Add/correct tabs | Request tabs | Top 50 tabs