» » »

Anathema, Destiny Bass tabs (ver.1)

Artists:  A B C D E F G H I J K L M N O P Q R S T U V W X Y Z # 

Destiny Bass tabs (ver.1)

Anathema Tabs
 Rating:
4/5 (4 votes)
Destiny lessons Tabs too difficult? Try these video lessons and learn fast
                nothing for the first bars...listen for timing

G||------|------|------|------|------|------|------|----------------------|
D||------|------|------|------|------|------|------|----------------------|
A||------|------|------|------|------|------|------|----------------------|
E||------|------|------|------|------|------|------|----------------------|


                                                        
---------------------------|---------------------------|
--5----5----5----5----5----|--4----4----4----4----4----|
---------------------------|---------------------------|
---------------------------|---------------------------|


                                                        
---------------------------|---------------------------|
--2----2----2----2----2----|--2----2----2----2----2----|
---------------------------|---------------------------|
---------------------------|---------------------------|


                                                        
---------------------------|---------------------------|
--5----5----5----5----5----|--4----4----4----4----4----|
---------------------------|---------------------------|
---------------------------|---------------------------|


                                                        
---------------------------|---------------------------|
--2----2----2----2----2----|--2----2----2----2----2----|
---------------------------|---------------------------|
---------------------------|---------------------------|


                                                        
---------------------------|---------------------------|
--5----5----5----5----5----|--4----4----4----4----4----|
---------------------------|---------------------------|
---------------------------|---------------------------|


                                                        
---------------------------|---------------------------|
--2----2----2----2----2----|--2----2----2----2----2----|
---------------------------|---------------------------|
---------------------------|---------------------------|


                                                        
---------------------------|---------------------------|
--5----5----5----5----5----|--4----4----4----4----4----|
---------------------------|---------------------------|
---------------------------|---------------------------|


                                                        
---------------------------|---------------------------|
--2----2----2----2----2----|--2----2----2----2----2----|
---------------------------|---------------------------|
---------------------------|---------------------------|


                                                        
---------------------------|---------------------------|
--5----5----5----5----5----|--4----4----4----4----4----|
---------------------------|---------------------------|
---------------------------|---------------------------|


                                                 
---------------------------|-------------------||
--2----2----2----2----2----|--2----------------||
---------------------------|-------------------||
---------------------------|-------------------||
            
Submit corrections

comments powered by Disqus
↑ Back to top | Anathema Bass for Destiny. Lyrics for acoustic guitar and electric guitar. Tablatures and chords are parodies/interpretations of the original songs. You may use it for private study, scholarship, research or language learning purposes only